Song name
# A B C D E F G H I J K L M N O P Q R S T U V W X Y Z

Prime Circle - My Insparation tab

----------------------------------------------------------------------------
			     MY INSPARATION - Prime Circle
----------------------------------------------------------------------------
Tabbed by:Marc Sacks
Email:sackster6789@hotmail.com

Tuning: standard EADGBE


This is the order of the chords for the intro, listen to the song for rhythm.

    A5    D5   C#5  A5

E--------------------------------------------------------------|
B--------------------------------------------------------------|
G---------7----6-----------------------------------------------|
D----7----7----6----7------------------------------------------|
A----7----5----4----7------------------------------------------|
E----5--------------5------------------------------------------|

E-----------------------------------------------------------------|
B-----------------------------------------------------------------|
G---------7-------------------------------------------------------|
D-----7---7-------------------------------------------------------|
A-----7---5-------------------------------------------------------|
E-----5-----------------------------------------------------------|

      These are the chords for the chorus

If you have any problems or corrections please email me at sackster6789@hotmail.com
Tap to rate this tab
# A B C D E F G H I J K L M N O P Q R S T U V W X Y Z