Song name
# A B C D E F G H I J K L M N O P Q R S T U V W X Y Z

Prime Cirlce - Live This Life tab

*****************************
PRIME CIRCLE - LIVE THIS LIFE
*****************************

Tab by: TheeDarkling
Tuning: Standard

Live This Life tab off their album "Live this Life". Seems pretty accurate to me and if 
there are any corrections, feel free to let us know :)

Intro: 00:00 - 00:06
(Hectic gain, palm muted)
*************************
e-------------------------------------------------------------|
B-------------------------------------------------------------|
G-------------------------------------------------------------|
D--7--77--7----7--77--7---7--77-7-77-7--77-7------------------|
A--7--77--7----7--77--7---7--77-7-77-7--77-7------------------|
E--5--55--5----5--55--5---5--55-5-55-5--55-5------------------|

Verse 1 (Acoustic Guitar): 00:06 - 00:36

 A5                C5               F5               D5
e--------------------------------------------------------------------|
B--------------------------------------------------------------------|
G------------------5-5-5-5-5-5-5-5-------------------7-7-7-7-7-7-7-7-|
D-7-7-7-7-7-7-7-7--5-5-5-5-5-5-5-5--3-3-3-3-3-3-3-3--7-7-7-7-7-7-7-7-|  x4
A-7-7-7-7-7-7-7-7--3-3-3-3-3-3-3-3--3-3-3-3-3-3-3-3--5-5-5-5-5-5-5-5-|
E-5-5-5-5-5-5-5-5-------------------1-1-1-1-1-1-1-1------------------|

Verse 1 (Distorted Electric) : 00:20 - 00:36
This might be the violin but anyways
************************************
        sustain for as long as you can or want and hold 10 until chorus
e------------|------------|-----------|---------------------------------|
B-----5(r)---|---(5)------|---(5)-----|---8---10(r)---------------------|
G--5h7-------|------------|-----------|---------------------------------|
D------------|------------|-----------|---------------------------------|
A------------|------------|-----------|---------------------------------|
E------------|------------|-----------|---------------------------------|

Chorus (Distortion Guitar 1) : 00:036 - 00:50
Give it a triplet like feel on the last 3 strums of each chord.
***************************************************************

 A                C                G                D
e----------------------------------------------------------------|
B----------------------------------------------------------------|
G--------------------5--5-5-5---------------------------7--7-7-7-|
D-7--7-7-7-----------5--5-5-5---------5--5-5-5----------7--7-7-7-| x2
A-7--7-7-7-----------3--3-3-3---------5--5-5-5----------5--5-5-5-|
E-5--5-5-5----------------------------3--3-3-3-------------------|

Chorus (Distortion Guitar 2) : 00:36 - 00:50
Let the 7th on D resonate out when it goes back into the verse
**************************************************************

e--------------------------------------------------------------------|
B--------------------------------------------------------------------|
G-------7/9-9-9----------7/9-12-7---------7/9-9-9--------------------|
D----------------------------------------------------9b10b9-7--------| x2
A--------------------------------------------------------------------|
E--------------------------------------------------------------------|

Verse 2 (Clean Guitar) : 00:50 - 01:17

        Asus2         Em/C               Best to go into a G fingering here
e--------------------------------------------------------------|
B-------0------------0------------0----------------------------|
G-----2---2--------2---2--------0---0--------0----0------------|
D---2-------2----2-------2----2-------2----0-----0-------------|  x2
A-0------------0------------3------------2---------------------|
E----------------------------------------------3---------------|

Verse 2 (Distorted Guitar) : 01:03 - 01:17
Palm muted Staccato on these chords
***********************************

e--------------------------------------------------------------|
B--------------------------------------------------------------|
G---------------------------5--5--5----------------------------|
D-7--7--7------7--7--7------5--5--5------5--5--5---------------| x2
A-7--7--7------7--7--7------3--3--3------5--5--5---------------|
E-5--5--5------5--5--5-------------------3--3--3---------------|

        Asus2         Em/C               Best to go into a G fingering here
e--------------------------------------------------------------|
B-------0------------0------------0----------------------------|
G-----2---2--------2---2--------0---0--------0----0------------|
D---2-------2----2-------2----2-------2----0-----0-------------|  x2
A-0------------0------------3------------2---------------------|
E----------------------------------------------3---------------|
Chorus (Distortion Guitar 1) : 01:17 - 01:30
Give it a triplet like feel on the last 3 strums of each chord
**************************************************************

 A                C                G                D
e----------------------------------------------------------------|
B----------------------------------------------------------------|
G--------------------5--5-5-5---------------------------7--7-7-7-|
D-7--7-7-7-----------5--5-5-5---------5--5-5-5----------7--7-7-7-| x2
A-7--7-7-7-----------3--3-3-3---------5--5-5-5----------5--5-5-5-|
E-5--5-5-5----------------------------3--3-3-3-------------------|

Chorus (Distortion Guitar 2) : 01:17 - 01:30
Let the 7th on D resonate out when it goes back into the verse
**************************************************************

e--------------------------------------------------------------------|
B--------------------------------------------------------------------|
G-------7/9-9-9----------7/9-12-7---------7/9-9-9--------------------|
D----------------------------------------------------9b109-7---------| x2
A--------------------------------------------------------------------|
E--------------------------------------------------------------------|

Verse 3 (Clean Guitar) : 01:30 - 01:58
(To me in this part of the song it sounds like the clean guitarist in
*********************************************************************
accompanied by the distortion guitarist, but the distorted guitarist
********************************************************************
is palm muting these motes as he plays them, this is optional)
**************************************************************

        Asus2         Em/C               Best to go into a G fingering here
e--------------------------------------------------------------|
B-------0------------0------------0----------------------------|
G-----2---2--------2---2--------0---0--------0----0------------|
D---2-------2----2-------2----2-------2----0-----0-------------|  x2
A-0------------0------------3------------2---------------------|
E----------------------------------------------3---------------|

Verse 3 (Distortion Guitar) : 01:45 - 01:58
Palm muted Staccato on these chords
***********************************

e--------------------------------------------------------------|
B--------------------------------------------------------------|
G---------------------------5--5--5----------------------------|
D-7--7--7------7--7--7------5--5--5------5--5--5---------------| x2
A-7--7--7------7--7--7------3--3--3------5--5--5---------------|
E-5--5--5------5--5--5-------------------3--3--3---------------|

Chorus (Distortion Guitar 1) : 01:58 - 02:15
Give it a triplet like feel on the last 3 strums of each chord
**************************************************************

 A                C                G                D
e----------------------------------------------------------------|
B----------------------------------------------------------------|
G--------------------5--5-5-5---------------------------7--7-7-7-|
D-7--7-7-7-----------5--5-5-5---------5--5-5-5----------7--7-7-7-| x2
A-7--7-7-7-----------3--3-3-3---------5--5-5-5----------5--5-5-5-|
E-5--5-5-5----------------------------3--3-3-3-------------------|

Chorus (Distortion Guitar 2) : 01:58 - 02:15
Let the 7th on D resonate out when it goes back into the bridge
***************************************************************

e--------------------------------------------------------------------|
B--------------------------------------------------------------------|
G-------7/9-9-9----------7/9-12-7---------7/9-9-9--------------------|
D----------------------------------------------------9b109-7---------| x2
A--------------------------------------------------------------------|
E--------------------------------------------------------------------|

Bridge (Acoustic Guitar) : 02:15 - 02:45


 A5                C5               F5               D5
e--------------------------------------------------------------------|
B--------------------------------------------------------------------|
G------------------5-5-5-5-5-5-5-5-------------------7-7-7-7-7-7-7-7-|
D-7-7-7-7-7-7-7-7--5-5-5-5-5-5-5-5--3-3-3-3-3-3-3-3--7-7-7-7-7-7-7-7-|  x4
A-7-7-7-7-7-7-7-7--3-3-3-3-3-3-3-3--3-3-3-3-3-3-3-3--5-5-5-5-5-5-5-5-|
E-5-5-5-5-5-5-5-5-------------------1-1-1-1-1-1-1-1------------------|

Bridge (Distortion Guitar) : 02:28 - 02:45

                                    sustain for as long as you can
                                    and hold 10 until chorus
e--8h10h12---10---8---7---5----------------------------------|
B-----------------------------8---6---5------8-----10--------|
G------------------------------------------------------------|
D------------------------------------------------------------|
A------------------------------------------------------------|
E------------------------------------------------------------|

Chorus (Distortion Guitar 1) : 02:45 - 03:12
Give it a triplet like feel on the last 3 strums of each chord
**************************************************************

 A                C                G                D
e----------------------------------------------------------------|
B----------------------------------------------------------------|
G--------------------5--5-5-5---------------------------7--7-7-7-|
D-7--7-7-7-----------5--5-5-5---------5--5-5-5----------7--7-7-7-| x4
A-7--7-7-7-----------3--3-3-3---------5--5-5-5----------5--5-5-5-|
E-5--5-5-5----------------------------3--3-3-3-------------------|

Chorus (Distortion Guitar 2) : 02:45 - 03:12

e--------------------------------------------------------------------|
B--------------------------------------------------------------------|
G-------7/9-9-9----------7/9-12-7---------7/9-9-9--------------------|
D----------------------------------------------------9b109-7---------| x2
A--------------------------------------------------------------------|
E--------------------------------------------------------------------|

e--------------------------------------------------------------------|
B--------------------------------------------------------------------|
G--------------------------------------------------------------------|
D----------------------------------------------------9b109-7---------| x4
A--------------------------------------------------------------------|
E--------------------------------------------------------------------|


Outro (Distortion guitar 1) : 03:12 - 03:38
Exact same chords as chorus, but 1 strum per chord. Hold D5 until fade out
*************************************************************************

  A5                 C5               G5                D5
e----------------------------------------------------------------|
B----------------------------------------------------------------|
G--------------------5----------------------------------7--------|
D-7------------------5----------------5-----------------7--------| x4
A-7------------------3----------------5-----------------5--------|
E-5-----------------------------------3--------------------------|

Outro (Distortion Guitar 2) : 03:12 - 03:38
Listen for when he plays it
***************************

e--------------------------------------------------------------------|
B--------------------------------------------------------------------|
G--------------------------------------------------------------------|
D----------------------------------------------------9b109-7---------| x2
A--------------------------------------------------------------------|
E--------------------------------------------------------------------|

Hope you get it right and it is as accurate as the real song. Enjoy and rock on!! And 
feel free to leave some comments or suggestions, every little bit counts.
Tap to rate this tab
 
# A B C D E F G H I J K L M N O P Q R S T U V W X Y Z