Guitaretab - guitar tabs
Song name
# A B C D E F G H I J K L M N O P Q R S T U V W X Y Z

Prime Sth - Im Stupid tab

Link to the group: http://www.myspace.com/primesth
Record company: Network Entertainment Group

Band: Prime STH
Song: Im Stupid

Tabbed by: Andreas Karlsson from the Swedish band called "Chronic Desire"!

Verse
e:-------------------------------------|
B:---2------2------2---2------2-----2--|
G:-----2------2----------1------1------|
D:-------------------------------------|
A:4------4------4----4-----4------4----|x2
D:-------------------------------------|

e:-------------------------------------|
B:---2------3------2---2------0-----2--|
G:-----2------2----------1------1------|
D:-------------------------------------|
A:0------0------0----2-----2------2----|
D:-------------------------------------| Sen hela igen

Refräng
e:----------------------------------|
B:----------------------------------|
G:----------------------------------|
D:--7------9-------4-------7--------|
A:--5------9-------4-------7--------|
D:---------9-------4-------7--------|

e:----------------------------------|
B:----------------------------------|
G:----------------------------------|
D:--7-------9-------7-------5-------|
A:--5-------9-------7-------5-------|
D:----------9-------7-------5-------|

e:----------------------------------|
B:----------------------------------|
G:----------------------------------|
D:--7-------9-------4~--------------|
A:--5-------9-------4~--------------|
D:----------9-------4~--------------|

Verse x4

Refräng 2
e:----------------------------------|
B:----------------------------------|
G:----------------------------------|
D:--7------9-------4-------7--------|
A:--5------9-------4-------7--------|
D:---------9-------4-------7--------|
[ Tab from: http://www.guitaretab.com/p/prime-sth/107170.html ]
e:----------------------------------|
B:----------------------------------|
G:----------------------------------|
D:--7-------9-------7-------5-------|
A:--5-------9-------7-------5-------|
D:----------9-------7-------5-------|x2

Re-Chorus
e:----------------------------------|
G:----------------------------------|
B:----------------------------------|
D:-9-----12-----7-----5-----9----11-|
A:-9-----12-----7-----5-----9----11-|
D:-9-----12-----7-----5-----9----11-|

Bridge
e:--------------|
B:--------------|
G:--------------|
D:-4-4--22---5--|
A:-4-4--22---5--|
D:-4-4--22---7--|(8X)

Brygga 2 PM
e:----------------------------------|
B:----------------------------------|
G:----------------------------------|
D:--7------9-------4-------7--------|
A:--5------9-------4-------7--------|
D:---------9-------4-------7--------|

e:----------------------------------|
B:----------------------------------|
G:----------------------------------|
D:-12-------9-------3---------------|
A:-12-------9-------3---------------|
D:-12-------9-------5---------------|


Outro Refräng
e:----------------------------------|
B:----------------------------------|
G:----------------------------------|
D:-12-------9-------4-------7-------|
A:-12-------9-------4-------7-------|
D:-12-------9-------4-------7-------|

e:----------------------------------|
B:----------------------------------|
G:----------------------------------|
D:-12-------9-------7-------5-------|
A:-12-------9-------7-------5-------|
D:-12-------9-------7-------5-------|4x

e:---------------------------|
B:---------------------------|
G:---------------------------|
D:-12-------9-------4--------|
A:-12-------9-------4--------|
D:-12-------9-------4-- <----|End on (let ring)

ENJOY!!
Related for Im Stupid tab