Song name
# A B C D E F G H I J K L M N O P Q R S T U V W X Y Z

Prime Sth - Pieces tab

-------------------------------------------------------------------------------
			     Pieces - By Prime Sth
-------------------------------------------------------------------------------
Tabbed by: Amirulwafi
Email:Cloud_hopers@yahoo.com

Tuning: Standard


Intro
e|---------------------------------------------------------------------------|
B|---------------------------------------------------------------------------|
G|-------9--------------------9---------------------------------------9------|
D|-------------11------------------11---------------12---------11------------|
A|---9-------------------9-----------------9---------------------------------|
E|---------------------------------------------------------------------------|

e|---------------------------------------------------------------------------|
B|---------------------------------------------------------------------------|
G|---------------------------------------------------------------------------|
D|----4-------------4------------4-------------------------------------------|
A|----4----x2-------4---x2-------4-------------------------------------------|
E|----2-------------2------------2-------------------------------------------| repeat this 2 times


e|--------------------------------------------------------------------------------|
B|--------------------------------------------------------------------------------|
G|--------------------------------------------------------------------------------|
D|----9--------------7------------6------------4----------------------------------|
A|----9----x7--------7----x4------6----x2------4----------------------------------|
E|----7--------------5------------4------------2----------------------------------|


And The Bass Goes In
e|--------------------------------------------------------------------------------------------|
B|--------------------------------------------------------------------------------------------|
G|--------------------------------------------------------------------------------------------|
D|--------------------------------------------------------------------------------------------|
A|--------------------------------------------------------------------------------------------|
E|-----1--1-----1--1-----1------1--1-------1--1-----1--------7-7-7-7-7-7-7----5-5-5-5----2-2--| 
repeat this 5 times


Chorus ( i not sure)
e|---------------------------------------------------------------------------|
B|---------------------------------------------------------------------------|
G|-------------------5-------------------------------------------------------|
D|---7-------3-------5-------5-----------------------------------------------|
A|---7-------3-------3-------5-----------------------------------------------|
E|---5-------1---------------3-----------------------------------------------|

 I Hope Anyone can repair this tab. Complete it. I just got figure this out :(

************************************
Tap to rate this tab
# A B C D E F G H I J K L M N O P Q R S T U V W X Y Z