Song name
# A B C D E F G H I J K L M N O P Q R S T U V W X Y Z

Primer 55 - Dose tab

Dose \ Primmer 55
Tabbed by Aaron Allen

Dropped D Tunning

e|-----------------------------------------------------------|
b|-----------------------------------------------------------|
g|-----------------------------------------------------------|
D|----------------3-------------------------3----------------|
A|-------5--3--5-----3--5----------5--3--5-----3--5--4--3----|
D|--0-------------------------0------------------------------|

e|-----------------------------------------------------------|
b|-----------------------------------------------------------|
g|-----------------------------------------------------------|
D|----------------3-------------------------3----------------|
A|-------5--3--5-----3--5----------5--3--5-----3--5--4--3----|
D|--0-------------------------0------------------------------|

e|-----------------------------------------------------------|
b|-----------------------------------------------------------|
g|-----------------------------------------------------------|
D|----------------3-------------------------3----------------|
A|-------5--3--5-----3--5----------5--3--5-----3--5--4--3----|
D|--0-------------------------0------------------------------|

e|-----------------------------------------------------------|
b|-----------------------------------------------------------|
g|-----------------------------------------------------------|
D|----------------3-------------------------3----------------|
A|-------5--3--5-----3--5----------5--3--5-----3--5--4--3----|
D|--0-------------------------0------------------------------|

I think it goes thought four times before it goes on.
anyways, have fun.
Tap to rate this tab
# A B C D E F G H I J K L M N O P Q R S T U V W X Y Z