Song name
# A B C D E F G H I J K L M N O P Q R S T U V W X Y Z

Primer 55 - Pigs tab

Song: “Pigs”
Artist: Primer 55
Album: Introduction To Mayhem
Transcribed By: Bryan Bramlett (bryanmb87@aol.com)

Tuning: 1/2 Step Down, Drop D

MAIN RIFF:
|------------------------|    |--------------|
|------------------------|play|--------------|
|------------------------| 3X |--------------|
|-0-2-X-2/3--5-X-2-2/3\2-|then|-0-2-X-2/3--5-|
|-0-2-X-2/3--5-X-2-2/3\2-|    |-0-2-X-2/3--5-|
|-0-2-X-2/3--5-X-2-2/3\2-|    |-0-2-X-2/3--5-|

VERSE:
|--------------------------------|
|--------------------------------|
|--------------------------------|
|--------------------------------|
|-0-2-X-2/3--5--2---0-2-X-2/3--5-|
|-0-2-X-2/3--5--2---0-2-X-2/3--5-|

INTERLUDE:
|-------------------|
|-------------------|
|-------------------|
|-XXXX-X-XX-0-2-3-0-|
|-XXXX-X-XX-0-2-3-0-|
|-XXXX-X-XX-0-2-3-0-|

INTERLUDE 2:
|-----------|
|-----------|
|-----------|
|-0--2----3-|
|-0--2----3-|
|-0--2----3-|
Tap to rate this tab
# A B C D E F G H I J K L M N O P Q R S T U V W X Y Z