Song name
# A B C D E F G H I J K L M N O P Q R S T U V W X Y Z

Primer 55 - Supa Freak Love tab

Primer 55
Supa Freak Love

Drop D down 1/2 step


fig1a
1|---------------------------
2|---------------------------
3|---------------------------
4|-0--2--3--2--0--3--2--xxxx-
5|-0--2--3--2--0--3--2--xxxx-
6|-0--2--3--2--0--3--2--xxxx-

fig1b
1|---------------------------
2|---------------------------
3|---------------------------
4|-0--2--3--2--0--3--2-------
5|-0--2--3--2--0--3--2-------
6|-0--2--3--2--0--3--2-------

fig2
1|---------------------6--------------
2|-4--------4/8----------8--------8\4-
3|------------------------------------
4|------------------------------------
5|------------------------------------
6|------------------------------------

fig3a
1|-----------------------------
2|-----------------------------
3|-----------------------------
4|-----------------------------
5|-5-4-3-x---------x-x-x-x-x-x-
6|-------x-3-5-4-3-x-x-x-x-x-x-

fig3b
1|-----------------------------
2|-----------------------------
3|-----------------------------
4|-----------------------------
5|-5-4-3-x---------------------
6|-------x-3-5-4-3-------------

fig3c
1|-----------------------------
2|-----------------------------
3|-----------------------------
4|-7-6-5-----5-4-3-------------
5|-5-4-3-x-x-5-4-3-------------
6|-------x-x-5-4-3-------------

fig4
1|------------------------------------
2|------------------------------------
3|------------------------------------
4|-4--------4-6--------6-4--------4-7-
5|------------------------------------
6|------------------------------------
Tap to rate this tab
 
# A B C D E F G H I J K L M N O P Q R S T U V W X Y Z