Song name
# A B C D E F G H I J K L M N O P Q R S T U V W X Y Z

Primer 55 - Big Fuck You tab

Song: "The Big *** You"
Artist: Primer 55
Album: Introduction To Mayhem
Transcribed By: Bryan Bramlett (bryanmb87@aol.com)

Tuning: Drop D, 1/2 Step Down

Intro:
|---------------------|
|---------------------|
|---------------------|
|---------------------|
|---------2---------2-|
|-0-2-3-0---0-2-3-0---|

FILL: (palm mute)
|-------|
|-------|
|-------|
|-------|
|-------|
|-3-2-1-|

CHORUS:
|------------------------|
|------------------------|
|----------------------4-|
|-0-2-3-0-9--0-2-3-0-9---|
|-0-2-3-0-9--0-2-3-0-9---|
|-0-2-3-0-9--0-2-3-0-9---|

VERSE:
|---------------------|
|---------------------|
|---------------------|
|---------------------|
|---------2---------2-|
|-0-2-3-0---0-2-3-0---|
PM. . . .   . . . .

INTERLUDE: (repeat several times, then play w/ random harmonics at end)
|-----------------|
|-----------------|
|-----------------|
|-0-3-0-3-0-3-0-3-|
|-0-3-0-3-0-3-0-3-|
|-0-3-0-3-0-3-0-3-|
Tap to rate this tab
 
# A B C D E F G H I J K L M N O P Q R S T U V W X Y Z