Song name
# A B C D E F G H I J K L M N O P Q R S T U V W X Y Z

Primitives - Crash tab

Crash - The Primitives

This song is essentially a 3 chord bash (B E F#) but the arrangement of
the guitar parts makes it sound a lot more interesting.

I worked this out based on my ears and snippets of videos (why do the
directors always focus in the singer?!) to get the finger positions.
I don't think it's too far away.

In the tab each dash (-) is roughly an 8th note but play along with the song
to get the exact feel.

Intro

|-2--2--2|-4--4--4|-2--2--2|-4--4--4|-2--2--2|-4--4--4|-2--2--2|--------|
|--0--0--|--0--0--|--0--0--|--0--0--|--0--0--|--0--0--|--0--0--|--------|
|4--4--4-|4--4--4-|3--3--3-|4--4--4-|4--4--4-|4--4--4-|3--3--3-|9\------|
|--------|--------|--------|--------|--------|--------|--------|9\------|
|--------|--------|--------|--------|--------|--------|--------|7\------|
|--------|--------|--------|--------|--------|--------|--------|--------|

Riff A

|--------|--------|--------|--------|--------|--------|--------|--------|
|--------|--------|--------|--------|--------|--------|--------|--------|
|--------|--------|--------|--------|--------|--------|--------|--------|
|99999999|22222222|44444444|22222222|99999999|22222222|44444444|22222222|
|99999999|22222222|44444444|22222222|99999999|22222222|44444444|22222222|
|77777777|00000000|22222222|00000000|77777777|00000000|22222222|00000000|

P.M. ................... ...............................................

Riff B

|--------|--------|--------|--------|--------|--------|--------|--------|
|--------|--------|--------|--------|--------|--------|--------|--------|
|--------|--------|--------|--------|--------|--------|--------|--------|
|9-9---9-|2-2---2-|4-4---4-|2-2---2-|9-9---9-|2-2---2-|4-4---4-|2-2---2-|
|9-9---9-|2-2---2-|4-4---4-|2-2---2-|9-9---9-|2-2---2-|4-4---4-|2-2---2-|
|7-7---7-|0-0---0-|2-2---2-|0-0---0-|7-7---7-|0-0---0-|2-2---2-|0-0---0-|

Riff B (variation)

|--------|--------|--------|--------|--------|--------|--------|--------|
|--------|--------|--------|--------|--------|--------|--------|--------|
|--------|--------|--------|--------|--------|--------|--------|--------|
|9\------|2-2---2-|4-4---4-|2-2---2-|9-9---9-|2-2---2-|4-4---4-|2-2---2-|
|9\------|2-2---2-|4-4---4-|2-2---2-|9-9---9-|2-2---2-|4-4---4-|2-2---2-|
|7\------|0-0---0-|2-2---2-|0-0---0-|7-7---7-|0-0---0-|2-2---2-|0-0---0-|

Riff C

|--------|--------|--------|--------|--------|--------|--------|--------|
|---0-20-|---0-20-|---0-20-|---0-20-|---0-20-|---0-20-|---0-20-|---0-20-|
|--3-----|--3-----|--4-----|--1-----|--3-----|--3-----|--4-----|--1-----|
|4-------|4-------|4-------|2-------|4-------|4-------|4-------|2-------|
|--------|--------|--------|--------|--------|--------|--------|--------|
|--------|--------|--------|--------|--------|--------|--------|--------|

Riff D

|-------0|--------|-------0|--------|
|----0---|----0---|----0---|----0---|
|--3---3-|--6---6-|--3---3-|--6---6-|
|4-------|--------|4-------|--------|
|--------|--------|--------|--------|
|--------|--------|--------|--------|

Riff E

|--------|--------|--------|--------|--------|--------|--------|--------|
|--------|--------|--------|--------|--------|--------|--------|--------|
|--------|--------|--------|--------|--------|--------|--------|9\------|
|99999999|22222222|44444444|22222222|99999999|22222222|44444444|9\------|
|99999999|22222222|44444444|22222222|99999999|22222222|44444444|7\------|
|77777777|00000000|22222222|00000000|77777777|00000000|22222222|--------|

P.M. ................... ...............................................


[Riff A]
here you go way too fast
don't slow down you're gonna crash
you should watch, watch your step
don't look out gonna break your neck

[Riff B]
so shut, shut your mouth
cos I'm not listening anyhow
i've had enough, enough of you
enough to last a lifetime through

[Riff C]
so what do you want of me?
got no words of sympathy 
and if i go around with you
you know that i'll get messed up too with you

[Riff D]

[Intro]
[Riff E] (i.e. intro is played on second guitar at same time as Riff E)
nana nana na nana nana naaaaa
nana nana na nana nana naaaaa

[Riff A]
here you go way to fast
don't slow down you're gonna crash
you don't know what's been going down
you've been running all over town

[Riff B (variation)]
so shut, shut your mouth
cos i'm not listening anyhow
i've had enough, enough of you
enough to last a lifetime through

[Riff C]
so what do you want of me?
got no cure for misery 
and if I go around with you
you know that i'll get messed up too with you

[Riff D]

with you

[Riff D]
with you

[Intro]
[Riff A]
nana nana na nana nana naaaaa
slow down you're gonna crash
[Intro]
[Riff A]
nana nana na nana nana naaaaa
slow down you're gonna crash

[Intro]
[Riff B]
nana nana na nana nana naaaaa
slow down you're gonna crash

{Repeat to fade}
Tap to rate this tab
# A B C D E F G H I J K L M N O P Q R S T U V W X Y Z