Song name
# A B C D E F G H I J K L M N O P Q R S T U V W X Y Z

Primordial - Gallows Hymn tab

Help us improve GuitareTab! Take a short survey!
Gallows Hymn by Primordial
tabbed by MetalLudde

Standard tuned guitars (EADGBE)

Guitar Riff 1

The second time 2nd guitar plays the (x)

|------------|------------|------------|-------------|
|------------|------------|------------|-------------|
|----0-----0-|----0-----0-|----0-----0-|----0--------|
|--4-----4---|--4-----4---|--2-----2---|--2-----2----|
|------------|------------|3-----3-----|3-----3------|
|0-----0-----|0-----0-----|------------|----------3-2|


|------------|------------|------------|------------|
|---(0)---(1)|---(0)---(1)|------------|------------|
|-(2)0--(2)2-|-(2)0--(2)2-|----0-----0-|----0-----0-|
|--4-----4---|--4-----4---|--2-----2---|--2-----2---|
|------------|------------|3-----3-----|3-----3-----|
|0-----0-----|0-----0-----|------------|------------|


|------------|------------|------------|------------|
|------------|------------|------------|------------|
|----2-----2-|----2-----2-|----2-----2-|----2-----2-|
|--4-----4---|--4-----4---|--1-----1---|--1-----1---|
|3-----3-----|3-----3-----|2-----2-----|2-----2-----|
|------------|------------|------------|------------|


|------------|------------|
|----0-------|------------|
|----------2-|----0-------|
|--1-----1---|--1-----1-4-|
|2-----2-----|2-----2-----|
|------------|------------|

Guitar Riff 2 Tremolo strumming

|--------------|--------------|--------------|--------------|
|--------------|--------------|--------------|--------------|
|--------------|--------------|--------------|--------------|
|--------------|--------------|--------------|--------------|
|7-9-10-7-9-10-|7-9-10-7-9-10-|--7-10---7-10-|--7-10---7-10-|
|--------------|--------------|8------8------|8------8------|


|-------------|-------------|--------------|--------------|
|-------------|-------------|--------------|--------------|
|-------------|-------------|--------------|--------------|
|-----------7-|-----------7-|--------------|--------------|
|7-9-10-7-9---|7-9-10-7-9---|--7-10---7-10-|--7-10---7-10-|
|-------------|-------------|8------8------|8------8------|


|------------|------------|------------|------------|
|------------|------------|------------|------------|
|------------|------------|------------|------------|
|----7-----7-|----7-----7-|----7-----7-|----7-----7-|
|--9-----9---|--9-----9---|--6-----6---|--6-----6---|
|8-----8-----|8-----8-----|7-----7-----|7-----7-----|


|------------|-------------|
|------------|-------------|
|------------|-------------|
|----9-----7-|-------------|
|--6-----6---|--6-10---6-9-|
|7-----7-----|7------7-----|

Guitar Riff 3 Tremolo strumming

|------------|------------|------------|------------|
|------------|------------|------------|------------|
|------------|------------|------------|------------|
|2-----------|2-----------|------------|------------|
|------------|------------|3-----------|3-----------|
|------------|------------|------------|------------|


|------------|------------|------------|------------|
|------------|------------|------------|------------|
|------------|------------|------------|------------|
|------------|------------|------------|------------|
|2-----------|2-----------|3-----------|3-----------|
|------------|------------|------------|------------|

                           A ending
|------------|------------||------------|------------|
|------------|------------||------------|------------|
|------------|------------||------------|------------|
|------------|------2-----||1-----------|1-----------|
|3-----------|3-----------||------------|------------|
|------------|------------||------------|------------|

                           B ending
|------------|------------||------------|------------|
|------------|------------||------------|------------|
|------------|------------||------------|------------|
|1-----------|1----4------||4-----------|4-----------|
|------------|------------||------------|------------|
|------------|------------||------------|------------|

|------------|------------|
|------------|------------|
|------------|------------|
|4-----------|5-----4-----|
|------------|------------|
|------------|------------|

Guitar Riff 4 Listen to the track for the strumming pattern.

|------------|------------|------------|------------|
|------------|------------|------------|------------|
|------------|------------|------------|------------|
|------------|------------|5-----------|5-----------|
|2-----------|2-----------|3-----------|3-----------|
|0-----------|0-----------|------------|------------|


|------------|------------|------------|------------|
|------------|------------|------------|------------|
|------------|------------|------------|------------|
|------------|------------|5-----------|5-----------|
|2-----------|2-----------|3-----------|3-----------|
|0-----------|0-----------|------------|------------|


|------------|------------|------------|------------|
|------------|------------|------------|------------|
|------------|------------|------------|------------|
|4-----------|4-----2-----|1-----------|1-----------|
|3-----------|3-----3-----|2-----------|2-----------|
|------------|------------|------------|------------|


|------------|------------|
|------------|------------|
|------------|------------|
|1-----------|1-----------|
|2-----------|2-----------|
|------------|------------|

Guitar Riff 5 Tremolo strumming

|------------|------------|------------|------------|
|------------|------------|------------|------------|
|------------|------------|5-----------|5-----------|
|2-----------|2-----------|------------|------------|
|------------|------------|------------|------------|
|------------|------------|------------|------------|


|------------|------------|------------|------------|
|------------|------------|------------|------------|
|4-----------|4-----2---4-|5-----------|5-----------|
|------------|------------|------------|------------|
|------------|------------|------------|------------|
|------------|------------|------------|------------|


|------------|------------|------------|------------|
|------------|------5-----|7-----------|7-----------|
|5-----------|5-----------|------------|------------|
|------------|------------|------------|------------|
|------------|------------|------------|------------|
|------------|------------|------------|------------|


|------------|------------|
|7-----------|8-----7-----|
|------------|------------|
|------------|------------|
|------------|------------|
|------------|------------|


Bass solo  x 3


|----0-----0-|----0-----0-|----0-----0-|----0-----0-|
|--4-----4---|--4-----4---|--2-----2---|--2-----2---|
|------------|------------|3-----3-----|3-----3-----|
|0-----0-----|0-----0-----|------------|------------|


|----0-----2-|----0-----2-|----0-----0-|----0-----0-|
|--4-----4---|--4-----4---|--2-----2---|--2-----2---|
|------------|------------|3-----3-----|3-----3-----|
|0-----0-----|0-----0-----|------------|------------|


|----2-----2-|----2-----2-|----2-----2-|----2-----2-|
|--4-----4---|--4-----4---|--1-----1---|--1-----1---|
|3-----3-----|3-----3-----|2-----2-----|2-----2-----|
|------------|------------|------------|------------|


|----4-----2-|----0-------|
|--1-----1---|--1-----1-4-|
|2-----2-----|2-----2-----|
|------------|------------|

Bass Line
After the solo the bass plays pretty much the same thing throughout the whole song. Just 
different strumming from time to time.

|------------|------------|------------|------------|
|------------|------------|------------|------------|
|------------|------------|3-----------|3-----------|
|0-----------|0-----------|------------|------------|


|------------|------------|------------|------------|
|------------|------------|------------|------------|
|------------|------------|3-----------|3-----------|
|0-----------|0-----------|------------|------------|


|------------|------------|------------|------------|
|------------|------------|------------|------------|
|3-----------|3-----------|2-----------|2-----------|
|------------|------------|------------|------------|


|------------|------------|
|------------|------------|
|2-----------|2-----------|
|------------|------------|


Bass solo

Both guitars riff 1 x 2

1st guitar riff 2 + 2nd Guitar riff 3a

1st guitar riff 2 + 2nd Guitar riff 3b

Both Guitars riff 4

1st guitar riff 2 + 2nd Guitar riff 3a

Both Guitars riff 4

1st guitar riff 2 + 2nd Guitar riff 5

1st guitar riff 4(ring out a little bit earlier) + 2nd Guitar riff 1
Related for Gallows Hymn tab