Primordial - Coffin Ships tab

-------------------------------------------------------------------------------
                         The Coffin Ships - Primordial
-------------------------------------------------------------------------------
Tabbed by: emr_steelmech

PM with questions & comments. Rate if you like. 

From the album "The Gathering Wilderness" (2005). This is one of those songs 
that I wished I had written when I first heard it, especially the Verse. Enjoy.

Tuning: Standard (E A D G B e)

Intro/Outro: (0:00)
e|---------------------------------------------------------------------------|
B|------------------------0--------------------------------------------------|
G|------------0---------------0-------------0--------------------------------|
D|----------4-----4-------------4-------4------------------------------------| 
A|------4-------------4-----------4------------------------------------------|
E|--2-------------------------------0----------------------------------------|

*Their Lead guitarist likes to mix these single notes in at random times in
between all the feedback he does over the intro/outro and verse riffs. Really 
the main point is the feedback:

Intro/Outro Lead: 
e|---------------------------------------------------------------------------|
B|---------------------------------------------------------------------------|
G|---------*feedback*--------------------------------------------------------|
D|---------------------------------------------------------------------------|
A|---------------------------------------------------------------------------|
E|----------------------------------0~~~~~~----2~~~~~~-----------------------|

Bridge Riff 1: (0:42)
e|---------------------------------------------------------------------------|
B|---------------------------------------------------------------------------|
G|---------------------------------------------------------------------------| 
D|--4-----4---4-4---4---4----------------------------------------------------|
A|--4-----4---4-4---4---4----------------------------------------------------|
E|--0h2---2---2-2---0---2----------------------------------------------------|

Bridge Riff 2: (0:55)
e|---------------------------------------------------------------------------|
B|---------------------------------------------------------------------------|
G|-------------------2----2--2--2--2--4----4--4--4--4------------------------|
D|--4----4--4--4--4--2----2--2--2--2--4----4--4--4--4--5----5--5--5--5-------|
A|--4----4--4--4--4--0----0--0--0--0--2----2--2--2--2--5----5--5--5--5-------|
E|--2----2--2--2--2------------------------------------3----3--3--3--3-------|
                                                                              
e|---------------------------------------------------------------------------|
B|---------------------------------------------------------------------------|
G|---------------------------------------------------------------------------| 
D|--4-----4---4-4---4---4----4-----4---4-4---4---4---------------------------|
A|--4-----4---4-4---4---4----4-----4---4-4---4---4---------------------------|
E|--0h2---2---2-2---0---2----0h2---2---2-2---0---2---------------------------|

e|---------------------------------------------------------------------------|
B|---------------------------------------------------------------------------|
G|-------------------2----2--2--2--2--5----5--5--5--5------------------------|
D|--4----4--4--4--4--2----2--2--2--2--5----5--5--5--5--5----5--5--5--5-------|
A|--4----4--4--4--4--0----0--0--0--0--3----3--3--3--3--5----5--5--5--5-------|
E|--2----2--2--2--2------------------------------------3----3--3--3--3-------|

e|---------------------------------------------------------------------------|
B|---------------------------------------------------------------------------|
G|---------------------------------------------------------------------------| 
D|--4-----4---4-4---4---4----4-----4---4-4---4---4---------------------------|
A|--4-----4---4-4---4---4----4-----4---4-4---4---4---------------------------|
E|--0h2---2---2-2---0---2----0h2---2---2-2---0---2---------------------------|

Verse Rhythm: (2:19)
e|---------------------------------------------------------------------------|
B|---------------------------------------------------------------------------|
G|--2-----------2------------------------------------------------------------|
D|--------------------------6-----------6-----------4-----------4------------|
A|--------4---------4-------------4---------4-------------4---------4--------|
E|----------2-----------2-----------2-----------2-----------2-----------2----|

e|---------------------------------------------------------------------------|
B|---------------------------------------------------------------------------|
G|---------------------------------------------------------------------------|
D|--2-----------4-----------2-----2-2---2-----2-2---2h4h6----6----6----------|
A|--------4---------4-------2-----2-2---2-----2-2---2--------2----2----------|
E|----------2-----------2---0-----0-0---0-----0-0---0--------0----0----------|

e|---------------------------------------------------------------------------|
B|---------------------------------------------------------------------------|
G|---------------------------------------------------------------------------|
D|--4h6p4p2----4-----4-----4-----4-----4h6h7----7----7----6h7p6p4------------|
A|--2----------4-------4---4-------4-----------------------------------------|
E|--0----------2-----------2-------------------------------------------------|

Verse Lead: starts 5th time verse is played distorted (3:42)
e|---------------------------------------------------------------------------|
B|---------------------------------------------------------------------------|
G|---------------------------------------------------------------------------|
D|--11---11-11---11---11-11---9----9--9----9----9h11--9----7----7--7----7----|
A|---------------------------------------------------------------------------|
E|---------------------------------------------------------------------------|

e|---------------------------------------------------------------------------|
B|---------------------------------------------------------------------------|
G|---------------------------------------------------------------------------|
D|-7h9--7----6----6--6----7----7--7----6----6--6----6----6--6----2----2--2---|
A|---------------------------------------------------------------------------|
E|---------------------------------------------------------------------------|

e|---------------------------------------------------------------------------|
B|---------------------------------------------------------------------------|
G|-----------------------------------------6----6--6----6----6--6------------|
D|--2----2--2----4----4--4----4----4--4----x----x--x----x----x--x------------|
A|-----------------------------------------4----4--4----4----4--4------------|
E|---------------------------------------------------------------------------|

e|---------------------------------------------------------------------------|
B|---------------------------------------------------------------------------|
G|---------------------------------------------------------------------------|
D|--11---11-11---11---11-11---9----9--9----9----9h11--9----7----7--7----7----|
A|---------------------------------------------------------------------------|
E|---------------------------------------------------------------------------|

e|---------------------------------------------------------------------------|
B|---------------------------------------------------------------------------|
G|---------------------------------------------------------------------------|
D|-7h9--7----6----6--6----7----7--7----6----6--6----6----6--6----2----2--2---|
A|---------------------------------------------------------------------------|
E|---------------------------------------------------------------------------|

e|---------------------------------------------------------------------------|
B|---------------------------------------------------------------------------|
G|---------------------------------------------------------------------------|
D|--2----2--2----4----4--4----4----4--4--------------------------------------|
A|---------------------------------------------------------------------------|
E|-----------------------------------------2h4h5----5----5----4h5p4p2--------|

e|---------------------------------------------------------------------------|
B|---------------------------------------------------------------------------|
G|---------------------------------------------------------------------------|
D|--14---14-14---14---14-14---12---12-12---12---12h14-12---11---11-11---11---|
A|---------------------------------------------------------------------------|
E|---------------------------------------------------------------------------|

e|---------------------------------------------------------------------------|
B|---------------------------------------------------------------------------|
G|---------------------------------------------------------------------------|
D|--11h12-11-9----9--9----11---11-11---9----9--9----9----9--9----7----7--7---|
A|---------------------------------------------------------------------------|
E|---------------------------------------------------------------------------|

e|---------------------------------------------------------------------------|
B|---------------------------------------------------------------------------|
G|---------------------------------------------------------------------------|
D|--6----6--6----7----7--7----7--------6----4----4--4----4----4--4-----------|
A|---------------------------------------------------------------------------|
E|---------------------------------------------------------------------------|

e|---------------------------------------------------------------------------|
B|---------------------------------------------------------------------------|
G|-------------------------------------------------------11---11-11----------|
D|--14---14-14---14---14-14---12---12-12---12---12-11h12---------------------|
A|---------------------------------------------------------------------------|
E|---------------------------------------------------------------------------|

e|---------------------------------------------------------------------------|
B|---------------------------------------------------------------------------|
G|--11---11-11---------------------------------------------------------------|
D|---------------11---11-11---11---11-11---12---12-12---12---12-12-----------|
A|---------------------------------------------------------------------------|
E|---------------------------------------------------------------------------|

e|---------------------------------------------------------------------------|
B|---------------------------------------------------------------------------|
G|---------------------------------------------------------------------------|
D|--12h14h16---16---16---14h16p14p12---11---11-11---11---11-11---------------|
A|---------------------------------------------------------------------------|
E|---------------------------------------------------------------------------|

e|---------------------------------------------------------------------------|
B|---------------------------------------------------------------------------|
G|---------------------------------------------------------------------------|
D|--7h9h11----11----11----9h11p9p7-------------------------------------------|
A|---------------------------------------------------------------------------|
E|---------------------------------------------------------------------------|

Bridge Riff 3 Rhythm 1: (4:37)
e|---------------------------------------------------------------------------|
B|--2----2--2--2--2--2----2--2--2--2--2h3--5----5----5----3h5p3p2------------|
G|--2----2--2--2--2--2----2--2--2--2--2----2----2----2----2-----2------------|
D|--2----2--2--2--2--2----2--2--2--2--2----2----2----2----2-----2------------|
A|--0----0--0--0--0--0----0--0--0--0--0----0----0----0----0-----0------------|
E|---------------------------------------------------------------------------|

e|---------------------------------------------------------------------------|
B|---------------------------------------------------------------------------|
G|--1----1--1--1--1--1----1--1--1--1--1h2--4----4----4----2h4p2p1------------|
D|--2----2--2--2--2--2----2--2--2--2--2----2----2----2----2-----2------------|
A|--2----2--2--2--2--2----2--2--2--2--2----2----2----2----2-----2------------|
E|--0----0--0--0--0--0----0--0--0--0--0----0----0----0----0-----0------------|

e|---------------------------------------------------------------------------|
B|---------------------------------------------------------------------------|
G|---------------------------------------------------------------------------|
D|--4----4--4--4--4--4----4--4--4--4---4h6h7----7----7----6h7p6p4------------|
A|--4----4--4--4--4--4----4--4--4--4-----------------------------------------|
E|--2----2--2--2--2--2----2--2--2--2-----------------------------------------|

e|---------------------------------------------------------------------------|
B|---------------------------------------------------------------------------|
G|--6----6--6--6--6--6----6--6--6--6--6----6--6--6--6--6----6--6--6--6-------|
D|--6----6--6--6--6--6----6--6--6--6--6----6--6--6--6--6----6--6--6--6-------|
A|--4----4--4--4--4--4----4--4--4--4--4----4--4--4--4--4----4--4--4--4-------|
E|--4----4--4--4--4--4----4--4--4--4--4----4--4--4--4--4----4--4--4--4-------|

Bridge Riff 3 Rhythm 2: (4:37)
e|---------------------------------------------------------------------------|
B|--2----2--2--2--2--2----2--2--2--2--2h3--5----5----5----3h5p3p2------------|
G|--2----2--2--2--2--2----2--2--2--2--2----2----2----2----2-----2------------|
D|--2----2--2--2--2--2----2--2--2--2--2----2----2----2----2-----2------------|
A|--0----0--0--0--0--0----0--0--0--0--0----0----0----0----0-----0------------|
E|---------------------------------------------------------------------------|

e|---------------------------------------------------------------------------|
B|---------------------------------------------------------------------------|
G|--1----1--1--1--1--1----1--1--1--1--1h2--4----4----4----2h4p2p1------------|
D|--2----2--2--2--2--2----2--2--2--2--2----2----2----2----2-----2------------|
A|--2----2--2--2--2--2----2--2--2--2--2----2----2----2----2-----2------------|
E|--0----0--0--0--0--0----0--0--0--0--0----0----0----0----0-----0------------|

e|---------------------------------------------------------------------------|
B|---------------------------------------------------------------------------|
G|---------------------------------------------------------------------------|
D|--4----4--4--4--4--4----4--4--4--4---4h6h7----7----7----6h7p6p4------------|
A|--4----4--4--4--4--4----4--4--4--4-----------------------------------------|
E|--2----2--2--2--2--2----2--2--2--2-----------------------------------------|

e|--4----4--4--4--4--4----4--4--4--4--4----4--4--4--4--4----4--4--4--4-------|
B|--5----5--5--5--5--5----5--5--5--5--5----5--5--5--5--5----5--5--5--5-------|
G|--6----6--6--6--6--6----6--6--6--6--6----6--6--6--6--6----6--6--6--6-------|
D|--6----6--6--6--6--6----6--6--6--6--6----6--6--6--6--6----6--6--6--6-------|
A|--4----4--4--4--4--4----4--4--4--4--4----4--4--4--4--4----4--4--4--4-------|
E|--4----4--4--4--4--4----4--4--4--4--4----4--4--4--4--4----4--4--4--4-------|

Bridge Riff 3 Lead: Starts 5th time Bridge Riff 3 is played (5:32)
e|---------------------------------------------------------------------------|
B|---------------------------------------------------------------------------|
G|--6----6--6--6--6--6----6--6--6--6--6----6--6--6--6--6----4----6-----------|
D|--x----x--x--x--x--x----x--x--x--x--x----x--x--x--x--x----x----x-----------|
A|--4----4--4--4--4--4----4--4--4--4--4----4--4--4--4--4----2----4-----------|
E|---------------------------------------------------------------------------|

e|---------------------------------------------------------------------------|
B|---------------------------------------------------------------------------|
G|--7----7--7--7--7--7----7--7--7--7--7----7--7--7--7--7----9----7-----------|
D|--x----x--x--x--x--x----x--x--x--x--x----x--x--x--x--x----x----x-----------|
A|--5----5--5--5--5--5----5--5--5--5--5----5--5--5--5--5----7----5-----------|
E|---------------------------------------------------------------------------|

e|---------------------------------------------------------------------------|
B|---------------------------------------------------------------------------|
G|--6----6--6--6--6--6---6--6--6--6--6----6--6--6--6--6----6--6--4--2--------|
D|--x----x--x--x--x--x---x--x--x--x--x----x--x--x--x--x----x--x--x--x--------|
A|--4----4--4--4--4--4---4--4--4--4--4----4--4--4--4--4----4--4--2--0--------|
E|---------------------------------------------------------------------------|

e|---------------------------------------------------------------------------|
B|---------------------------------------------------------------------------|
G|--4----4--4--4--4--4----4--4--4--2------------------------------2--4-------|
D|--x----x--x--x--x--x----x--x--x--x--6----6--6--6--6--6----6--6--x--x-------|
A|--2----2--2--2--2--2----2--2--2--0--x----x--x--x--x--x----x--x--0--2-------|
E|------------------------------------4----4--4--4--4--4----4--4-------------|

e|---------------------------------------------------------------------------|
B|---------------------------------------------------------------------------|
G|--6----6--6--6--6--6----6--6--6--6--6----6--6--6--6--6----4----6-----------|
D|--x----x--x--x--x--x----x--x--x--x--x----x--x--x--x--x----x----x-----------|
A|--4----4--4--4--4--4----4--4--4--4--4----4--4--4--4--4----2----4-----------|
E|---------------------------------------------------------------------------|

e|---------------------------------------------------------------------------|
B|---------------------------------------------------------------------------|
G|--11---11-11-11-11-11---11-11-11-11-13---13-13-13-13-13---11---13----------|
D|--x----x--x--x--x--x----x--x--x--x--x----x--x--x--x--x----x----x-----------|
A|--9----9--9--9--9--9----9--9--9--9--11---11-11-11-11-11---9----11----------|
E|---------------------------------------------------------------------------|

e|---------------------------------------------------------------------------|
B|---------------------------------------------------------------------------|
G|--14---14-14-14-14-14---14-14-14-14-14---14-14-14-14-14---13---14----------|
D|--x----x--x--x--x--x----x--x--x--x--x----x--x--x--x--x----x----x-----------|
A|--12---12-12-12-12-12---12-12-12-12-12---12-12-12-12-12---11---12----------|
E|---------------------------------------------------------------------------|

e|---------------------------------------------------------------------------|
B|---------------------------------------------------------------------------|
G|--13---13-13-13-13-13---13-13-13-13-13---13-13-13-13-13---11---13----------|
D|--x----x--x--x--x--x----x--x--x--x--x----x--x--x--x--x----x----x-----------|
A|--11---11-11-11-11-11---11-11-11-11-11---11-11-11-11-11---9----11----------|
E|---------------------------------------------------------------------------|

e|---------------------------------------------------------------------------|
B|---------------------------------------------------------------------------|
G|--14---14-14-14-14-14---14-14-14-14-14---14-14-14-14-14---16---14----------|
D|--x----x--x--x--x--x----x--x--x--x--x----x--x--x--x--x----x----x-----------|
A|--12---12-12-12-12-12---12-12-12-12-12---12-12-12-12-12---14---12----------|
E|---------------------------------------------------------------------------|

e|---------------------------------------------------------------------------|
B|---------------------------------------------------------------------------|
G|--13---13-13-13-13-13---13-13-13-13-13---13-13-13-13-13---11---13----------|
D|--x----x--x--x--x--x----x--x--x--x--x----x--x--x--x--x----x----x-----------|
A|--11---11-11-11-11-11---11-11-11-11-11---11-11-11-11-11---9----11----------|
E|---------------------------------------------------------------------------|

e|---------------------------------------------------------------------------|
B|---------------------------------------------------------------------------|
G|--11---11-11-11-11-11---11-11-11-11-11---11-11-11-11-11---11-11-11-11------|
D|--x----x--x--x--x--x----x--x--x--x--x----x--x--x--x--x----x--x--x--x-------|
A|--9----9--9--9--9--9----9--9--9--9--9----9--9--9--9--9----9--9--9--9-------|
E|---------------------------------------------------------------------------|

e|---------------------------------------------------------------------------|
B|---------------------------------------------------------------------------|
G|--9----9--9--9--9--9----9--9--9--9--6----6--6--6--6--6/7---7--7--7--7------|
D|--x----x--x--x--x--x----x--x--x--x--x----x--x--x--x--x/x---x--x--x--x------|
A|--7----7--7--7--7--7----7--7--7--7--4----4--4--4--4--4/5---5--5--5--5------|
E|---------------------------------------------------------------------------|

e|---------------------------------------------------------------------------|
B|---------------------------------------------------------------------------|
G|--6----6--6--6--6--6----6--6--6--6--6----6--6--6--6--6----6--6--6--6-------|
D|--x----x--x--x--x--x----x--x--x--x--x----x--x--x--x--x----x--x--x--x-------|
A|--4----4--4--4--4--4----4--4--4--4--4----4--4--4--4--4----4--4--4--4-------|
E|---------------------------------------------------------------------------|

e|---------------------------------------------------------------------------|
B|---------------------------------------------------------------------------|
G|---------------------------------------------------------------------------|
D|--11---11-11-11-11-11---11-11-11-11-13---13-13-13-13-13---13-13-13-13------|
A|--x----x--x--x--x--x----x--x--x--x--x----x--x--x--x--x----x--x--x--x-------|
E|--9----9--9--9--9--9----9--9--9--9--11---11-11-11-11-11---11-11-11-11------|

e|---------------------------------------------------------------------------|
B|---------------------------------------------------------------------------|
G|--18---18-18-18-18-18---18-18-18-18-18---18-18-18-18-18---18-18-18-18------|
D|--x----x--x--x--x--x----x--x--x--x--x----x--x--x--x--x----x--x--x--x-------|
A|--16---16-16-16-16-16---16-16-16-16-16---16-16-16-16-16---16-16-16-16------|
E|---------------------------------------------------------------------------|


e|---------------------------------------------------------------------------|
B|---------------------------------------------------------------------------|
G|--18---18-18-18-18-18---18-18-18-18-18-19---19-19-19-19-19-19-19-19-19-19--|
D|--x----x--x--x--x--x----x--x--x--x--x-/x----x--x--x--x--x--x--x--x--x--x---|
A|--16---16-16-16-16-16---16-16-16-16-16/17---17-17-17-17-17-17-17-17-17-17--|
E|---------------------------------------------------------------------------|

e|---------------------------------------------------------------------------|
B|---------------------------------------------------------------------------|
G|--18~~~~~------------------------------------------------------------------|
D|--x------------------------------------------------------------------------|
A|--16~~~~~------------------------------------------------------------------|
E|---------------------------------------------------------------------------|

Final Verse Rhythm: (7:24)
e|---------------------------------------------------------------------------|
B|---------------------------------------------------------------------------|
G|--2-----------2------------------------------------------------------------|
D|--------------------------6-----------6-----------4-----------4------------|
A|--------4---------4-------------4---------4-------------4---------4--------|
E|----------2-----------2-----------2-----------2-----------2-----------2----|

e|---------------------------------------------------------------------------|
B|---------------------------------------------------------------------------|
G|---------------------------------------------------------------------------|
D|--2-----------4-----------2-----2-2---2-----2-2----------------------------|
A|--------4---------4-------2-----2-2---2-----2-2----------------------------|
E|----------2-----------2---0-----0-0---0-----0-0---0h2h4----4----4----------|

e|---------------------------------------------------------------------------|
B|---------------------------------------------------------------------------|
G|---------------------------------------------------------------------------|
D|---------------------------------------------------------------------------|
A|---------------------------------------------------------------------------|
E|--2h4p2p0---2----2--2----2----2--2----2h4h5----5----5----4h5p4p2-----------|

Final Verse Lead: (7:24)
e|---------------------------------------------------------------------------|
B|---------------------------------------------------------------------------|
G|--2-----------2------------------------------------------------------------|
D|--------------------------6-----------6-----------4-----------4------------|
A|--------4---------4-------------4---------4-------------4---------4--------|
E|----------2-----------2-----------2-----------2-----------2-----------2----|

e|---------------------------------------------------------------------------|
B|---------------------------------------------------------------------------|
G|---------------------------------------------------------------------------|
D|--2-----------4-----------2-----2-2---2-----2-2----------------------------|
A|--------4---------4-------2-----2-2---2-----2-2----------------------------|
E|----------2-----------2---0-----0-0---0-----0-0---4h5h7----7----7----------|

e|---------------------------------------------------------------------------|
B|---------------------------------------------------------------------------|
G|---------------------------------------------------------------------------|
D|---------------------------------------------------------------------------|
A|---------------------------------------------------------------------------|
E|--5h7p5p4---5----5--5----5----5--5----5h7h9----9----9----7h9p7p5-----------|

End: (9:16)
e|---------------------------------------------------------------------------|
B|---------------------------------------------------------------------------|
G|---------------------------------------------------------------------------|
D|---------------------------------------------------------------------------|
A|---------------------------------------------------------------------------|
E|--2~~----------------------------------------------------------------------|

ORDER OF RIFFS:

Rhythm Guitar:
						
Intro				x12
Bridge Riff 1			x8
Bridge Riff 2			x2
Intro				x8
Bridge Riff 2			x2
Verse Rhythm (Clean)		x4
Verse Rhythm (Dist.)		x6
Bridge Riff 3 Rhythm 1		x8
Verse Rhythm (Clean)		x4
Final Verse Rhythm (Dist.)	x4
Outro				x16
End				x1

Lead Guitar:

Silence over intro		x4
Intro Lead			x8
Bridge Riff 1			x8
Bridge Riff 2			x2
Intro Lead			x8
Bridge Riff 2			x2
Silence over verse		x2
Verse Rhythm (Dist.)		x4
Verse Lead			x1
Bridge Riff 3 Rhythm 2		x4
Bridge Riff 3 Lead		x1
Intro Lead (over verse)		x4
Final Verse Lead		x4
Outro Lead			x16

************************************

| /   slide up
| \   slide down
| h   hammer-on
| p   pull-off
| ~   let ring/vibrato
| +   harmonic
| *   artificial harmonic
| x   Mute note
| b   Bend
| pb  Pre-bend
| br  Bend release
| pbr Pre-bend release
| brb Bend release bend

************************************

Tap to rate this tab
 
# A B C D E F G H I J K L M N O P Q R S T U V W X Y Z