Song name
# A B C D E F G H I J K L M N O P Q R S T U V W X Y Z

Primus - Pork Chops Little Ditty tab

Help us improve GuitareTab! Take a short survey!
thats the guitar tab or if you want banjo tab for pork chop's little dirty made by 
can also work for prok chop's little dirty 1 lol,it plays in standard tuning.

for any comment, suggestion or just for congrats me ^^ mail at
perknoma@hotmail.com

to play this song you got to ahave a good rythm, try it along the song first so you get in
   ---------------------------13-12---------------------13-12-----------|
   10-h1213-13-10-13-13-10-13------9---10-h1213-13-10-13-----9--911--9--|
   ---------------------------------10------------------------10--10----|
   ---------------------------------------------------------------------|
   ---------------------------------------------------------------------|
   ---------------------------------------------------------------------|

   ---------------------------13-12---------------------13-12------------------|
   10-h1213-13-10-13-13-10-13------9---10-h1213-13-10-13-----9-911--9-11--9--9-|
   ---------------------------------10------------------------10-10-10-10------|
   ----------------------------------------------------------------------------|
   ----------------------------------------------------------------------------|
   ----------------------------------------------------------------------------|

   then it goes in the riff like in pork chops little dirty 1
   you have to stroke some string several times, hope youll get it easily

   16-16-16-14-14-13-13------------16-16-13-13-14-14-------------------|
   ---------------------13-14/16----------------------13---13-14/16----|
   --------------------------------------------------------------------|
   --------------------------------------------------------------------|
   --------------------------------------------------------------------|
   --------------------------------------------------------------------|

  and the ending,
   16-16-16-14-14-13-13------------------------------------------------|
   ---------------------13-14/16------16-16-14/13--9-------------------|
   --------------------------------------------------------------------|
   --------------------------------------------------------------------|
   --------------------------------------------------------------------|
   --------------------------------------------------------------------|

hell that song sucks!
Related for Pork Chops Little Ditty tab