Guitaretab - guitar tabs
Song name
# A B C D E F G H I J K L M N O P Q R S T U V W X Y Z
Home / P / Primus / Dmv tab

Primus - Dmv tab

#h# = hammer-on
#p# = pull-off
/ = slide up
\ = slide down
#~ = let note ring
~ above tab = vibrato
(/ and \ are slides unless above the tab, in which case its telling you how far to 
up on the tremolo bar, depress = \ pull up = /)
^ = bend
<#> = tremolo bar
* = read foot note
trem. pick = play the note as fast, and as many times as possible before the next note

||---------||
||---------||
||---*/*---|| play previous bar
||---------||
||---------||
||---------||

||---------------------------------------||
||---------------------------------------||
||*--when you get to the symbol on the--*||
||*--right, go to the one on the left---*||
||---------------------------------------||
||---------------------------------------||

Intro:
     ~~~~~~~                   ~~~~~~~      ~~~~~~~      ~~~~~~~
e||------------||----------||------------|------------|------------||
B||-7-------6\-||----------||-7-------6\-|-7*------6\-|-7*------6\-||
G||-7-------6\-||----------||-7-------6\-|-7*------6\-|-7*------6\-||
D||-6-------5\-||----------||-6-------5\-|-6*------5\-|-6*------5\-||
A||------------||----------||------------|------------|------------||
E||------------||----------||------------|------------|------------||
     *Vibrato

1st-4th Verses:
  |                  Rhy. Fig. 1                           |
e||--------------------------------------------------------||
B||--15-15-15-15-15-15-15-15-15-15-15-15-15-15-15-15-15-15-||
G||*-13-13-13-13-13-13-13-13-13-13-13-13-13-13-13-13-13-13-||
D||*-------------------------------------------------------||
A||--------------------------------------------------------||
E||--------------------------------------------------------||
-Repeat this line however many times needed for each verse

Fill 1:
e||----------------------------||
B||-15-15----------------------||
G||-13-13----------------------||
D||----------------------------||
A||------------7-6-6-5-5-4-4-0-||
E||----------------------------||

  |                          Rhy. Fill 1                       |
    \/ \/ \/ \/ \/ \/ \/ \/ \/ \/ \/ \/ \/ \/ \/   ~~~~~~~
e||------------------------------------------------------------*|------------||
B||------------------------------------------------------------*|-6-------5\-||
G||------------------------------------------------------------*|-6-------5\-||
D||-<6>~~~~~~~~~~~~~~~~~~~~~~~~~~~~~~~~~~~~~~~~~~~~~~~~~~~~~~~~*|-6-------5\-||
A||-<5>~~~~~~~~~~~~~~~~~~~~~~~~~~~~~~~~~~~~~~~~~~~~~~~~~~~~~~~~*|------------||
E||------------------------------------------------------------*|------------||
                                                               *to coda I

     ~~~~~~~~
e||------------------|------------------------|---------------------||
B||-7----------------|------------------------|---------------0--0--||
G||-7--------7--6--5-|-6--7--8--7--6--5--6--7-|-5h6----0---4-------*||
D||-6----------------|------------------------|--------------------*||
A||------------------|------------------------|---------------------||
E||------------------|------------------------|---------------------||

Interlude I:
e||----------------|------------------|------------------|-------------------||
B||-------7--6-----|-----------7--6---|-------------7--6-|-7/8-8-7--6--------||
G||-----7--------6-|---------7------6-|---------7--------|------------0-7--0-||
D||-6--------------|-5---6------------|-5---6------------|-------------------||
A||----------------|------------------|------------------|-------------------||
E||----------------|------------------|------------------|-------------------||

     ~~~~~~~                          ~~~~~   ~~~~~        ~~~~~
e||------------|---------|---------|-------|------------|------------||
B||-7-------6\-|---------|---------|-7-----|-------7--6-|------------||
G||-7-------6\-|---*/*---|---*/*---|-7-----|-7----------|-6-----6--6-||
D||-6-------5\-|---------|---------|-6-----|------------|------------||
A||------------|---------|---------|-------|------------|------------||
E||------------|---------|---------|-------|------------|------------||

     ~~~~~
e||------------|----------------------||
B||-------7--6-|-7*--8--9--8--7--6--0-||
G||-7----------|----------------------||
D||------------|----------------------||
A||------------|----------------------||
E||------------|----------------------||
                       D.S. al Coda 1

Coda I: W/Rhy. Fill 1 (1st 3 bars only)
e||--------------------||
B||--------------------||
G||--------------------||
D||-~~~~~~~~~~~~~----0-||
A||-~~~~~~~~~~~~~-4----||
E||--------------------||
-continue with the tremolo bending thing

                   \/
e||---------|------------|------------|-----------------||
B||---------|------------|------------|-----------------||
G||-7-----7-|-7-----7--7-|------------|-8--7--6--5------||
D||-7-----6-|-6-----6----|-6----------|-------------5h6-||
A||---------|------------|------------|-----------------||
E||---------|------------|------------|-----------------||

Interlude II:
e||---------|-------------------|-------------------|--------------------||
B||---------|-------------------|-------------------|------------------0-||
G||-------7-|-7--8--10--8--7--0-|-7-----------------|------------------0-||
D||-6-------|-------------------|-----6-------------|-6-6-6--5--4--0-----||
A||---------|-------------------|-------------------|--------------------||
E||---------|-------------------|-------------------|--------------------||

                          ~~~
e||---------|--------------------|---------------|---------------0-||
B||---------|--------------------|---------------|---------------0-||
G||-7-----6-|-7----7--8--8---8\7-|-7---(7)\6---x-|-7/8--8--8\------||
D||-6-----5-|-6----6--7----------|-6---(6)\5---x-|-6/7--7--7\------||
A||---------|--------------------|---------------|-----------------||
E||---------|--------------------|---------------|-----------------||

Coda II: w/Rhy. Fill 1 (2 times)
[ Tab from: http://www.guitaretab.com/p/primus/15075.html ]
Outro Solo:     \              \/  \/
e||-------|-------------------|------------------------|-------------x-----x---||
B||-13*---|-13-13---6\9---6\9-|-12---12----------------|-----------------------||
G||-11*---|-11-11-------------|------11-----11---------|-------12--------------||
D||-------|-------------------|-----------------10-----|-------12-13-----------||
A||-------|-------------------|---------------------12-|-11/12---------------0-||
E||-------|-------------------|------------------------|-----------------------||
      *trem. pick
                                                    \  /
e||------13--------------------|----------------------------------------||
B||---------13\12p0------------|----------------------------------------||
G||-13*--------------11--11-11-|-------------------11------11--11-11/14-||
D||-11*--------------10--10-10-|----------11\10-10------10--------------||
A||-------------------------0--|-11-11-0-0------------------------------||
E||----------------------------|----------------------------------------||
      *trem. pick

      ~~~
e||----------------------------||
B||---------12-10-9-10-10-9-10-||
G||-12---12--------------------||
D||----------------------------||
A||----------------------------||
E||----------------------------||
                                  \  /       ~~~ \  /   \1 \  / \1/
e||---------------------------------------|-----------------------|-------------||
B||-10\9/10/11----11----10----10----------|------14---------------|-7-----------||
G||-----------11-----12----12----13----13-|------11-------------8-|-7------(4)/-||
D||---------------------------------------|-10-------------0-0--8-|-0-----------||
A||---------------------------------------|-----------------------|-------------||
E||---------------------------------------|-----------------------|-------------||
                                              *vibrato
   _________  **1
 1/         \/~~~~~~~~~~~~~~~~~~~~~~~~~~~~~~~                          \1/
e||-----------|------------------------|----------------x/-|-x^^^^-x^^^^-||
B||-----------|------------------------|---------x/--x/-x/-|-----x-----0-||
G||-0--0-0----|------------------------|---------x/--x/----|-------------||
D||---------0-|-0--0--0--0--0--0--0--0-|-0-----------------|-------------||
A||-----------|------------------------|-------------------|-------------||
E||-----------|------------------------|-------------------|-------------||
              **Pull up on bar and vib. simultaneously

              \_____/    \/1\1 \/  \2/\2   \2/\2   \3/\1
e||-----------------------|---------------|--------------------||
B||-----------------------|-------------7-|-----5--------------||
G||-------------7-----3/4-|-0-----0-------|--------------------||
D||-------------7---------|---------------|--------------------||
A||-----2-4---------------|---------------|--------------------||
E||-2---------------------|---------------|--------------------||

   \/\1 \/ \4_____/1                     \1/
e||----------------|------------------|--------------11--------||
B||-0------0---0---|------------------|---12--12--11-----11h14-||
G||------------0---|-----x\-----5---0-|------------------------||
D||----------------|-----x\-----------|------------------------||
A||----------------|-----x\-----------|------------------------||
E||----------------|------------------|------------------------||

                                  \2/      \/         \3   tap w/edge of pick--
e||-----------------------------|--------------------|-------------------24-x/||
B||-----------------------17\14-|-12--------19-16\14-|--14------21-22-23-24-x/||
G||-----15----13----------0-----|--------16----------|------------------------||
D||--------14----14/16----------|--------------------|------------------------||
A||-13--------------------------|--------------------|------------------------||
E||-----------------------------|--------------------|------------------------||

   above pickups---|
----------------------------------------------------------------------------------------------||
e||/x------------x\-13-14-|-15-------------13------------|--------------------------0-0-------||
B||/x--x-x-x-x/x-x\-------|----14-------14----15\14------|-14---0-12-12-12----12-12-0-0-10/11-||
G||-----------------------|-------12-12-------------0----|----0---13-13-13-13----11-----------||
D||-----------------------|---------------------------11-|------------------------------------||
A||-----------------------|---------------------------10-|------------------------------------||
E||-----------------------|------------------------------|------------------------------------||

                                                                           \/
e||--------------------------------------------|-------------------------------||
B||-10---------------------13--13-----14--14---|-14--14---14--14--14--------10-||
G||-11--12-12/14--14-15-15---16--16-17--17--16-|---16--16---16--16--16\--------||
D||--------------------------------------------|-------------------------------||
A||--------------------------------------------|-------------------------------||
E||--------------------------------------------|-------------------------------||
                         ___
                      \/
e||-12p9-----9p5p0-------||
B||-------10-------5/8-5-||
G||----------------------||
D||----------------------||
A||----------------------||
E||----------------------||

____
    \3                                               \1___1/ \3/3
e||---------------------------9-|--------19\--------------|--------------------------||
B||-----------------------------|---/19-------------------|--------------------------||
G||-----------------------------|---------------9-----0---|----12------/12-----------||
D||----4//5//6-6/14-----11\7----|-6---------/8--8/9-------|----------------11-12-----||
A||-----------------------------|-----------/7------------|-------------------11-----||
E||-----------------------------|-------------------------|----------0--------12--0--||

                                             Begin Fade
e||-----------------|-----------------------|-----------------------|------------||
B||-----------------|-----0----0------------|-0----------------0----|----0-----0-||
G||-----------0-----|-----0--0----0---------|--------13\12-13--0----|-0--0-----0-||
D||--------/6p0-----|---------------0---6\5-|----6-6-12\11-12--11---|----6\5---5-||
A||-0-----------0---|-0---------------------|------5----------------|----5\4---4-||
E||-0-----------0---|-----------------------|-----------------------|----------0-||

        \         \/               Fdbk.--------|       \1/\2------||      Fade Out
e||-------------------|------x--------x---x---|-x------------------|-||
B||-0---------(0)-----|--------------x--------|--------0---------0-|-||
G||-0---3-----(0)---x-|-7--------x--x---------|--------0---------0-|-||
D||-2-----------------|-6---------------------|--------0---0-------|-||
A||-----4-------------|-----------------------|----3-3-------------|-||
E||-------------------|-----------------------|--------------------|-||
Related for Dmv tab
Dmv chords by Primus