Song name
# A B C D E F G H I J K L M N O P Q R S T U V W X Y Z

Primus - My Friend Fats tab

Artist: Primus
Song: My Friend Fats
Album: Animals Should Not Try to Act Like People EP (2003)
Tuning: E-A-D-G-B-E
Tabbed by: Jeremy Hill

v = volume swell

Intro
e|------------------------------------------------------|
B|------------------------------------------------------|
G|------------------------------------------------------|
D|------------------------------------------------------|
A|--3-3-3-3------3-3-3-3------3-3-3-3------3-3-3-3------|
E|--1-1-1-1------1-1-1-1------1-1-1-1------1-1-1-1------|
 PM . . . .      . . . .      . . . .      . . . .

Chorus
e|---------------------------------------------------------------|
B|---------------------------------------------------------------|
G|------------------------8v--------------------------8v--(/10)--|()-Play after end of
D|---------------------------------------------------------------|chorus
A|--3-3-3-3------3-3-3-3--6v----3-3-3-3------3-3-3-3--6v--(/8-)--|
E|--1-1-1-1------1-1-1-1--------1-1-1-1------1-1-1-1-------------|
 PM . . . .      . . . .      . . . .      . . . .

 w/ Tremolo Effect
e|-----------------------------------------------------------|
B|------------------10--------------------------------10-----|
G|--8/10\-/10-12\8--------10/12\8-----------10/12\8----------|
D|-----------------------------------------------------------|
A|--6/8-\-/8--10\6--8-----8-/10\6----8/10---8-/10\6---8----3-|
E|-----------------------------------6/8-------------------1-|

 Quiet part
e|------------------------------------------------------------------------|
B|----0----0---0---0-------0----0---0---0--------0----0---0---0-----------|
G|-----0----0---0---0-------0----0---0---0-17-----0----0---0---0----------|() Play at end
D|--13---15--17--16--17--13---15--17--16-------13---15--17--16--17--(19)--|
A|------------------------------------------------------------------------|
E|------------------------------------------------------------------------|

 Solo					   w/ wah
e|--------------------------------------------------------------------------------8--10----|
B|--------------------------------------------------------10-8----8---------------------8--|
G|--5--3-3---------------------------------8-8-8-8/10--10------7--7----8-/-10-\-6----------|
D|--3--1-1---------------------------------------------------------------------------------|
A|-------------3/5-3--8--6/8-9--6/8--8\6-6-------------------------------------------------|
E|-----------1-----------------------------------------------------------------------------|

 w/ wah
e|----8----8--10-13--11-10-11-10-8--8-8-10-8-8-------------------------------------------|
B|--10---11-------------------------------------10-11-10-8-10-8------10---8--------8-----|
G|--------------------------------------------------------------10-8----8---8--7-8---10--|
D|---------------------------------------------------------------------------------------|
A|---------------------------------------------------------------------------------------|
E|---------------------------------------------------------------------------------------|

 w/ wah
e|----------------------------------------------------------------------------|
B|-------8--------------------------------------------------------------------|
G|--8h10---10--8-10--10-----10-10-10-8-8-8-10-10-10-11-11-11-10-10-8-8--------|
D|-------------------8----------------------------------------------------3---|
A|--------------------------8--8--8--6-6-6-8--8--8--9--9--9--8--8--6-6----3---|
E|------------------------------------------------------------------------1---|
                         PM...........................................
Tap to rate this tab
 
# A B C D E F G H I J K L M N O P Q R S T U V W X Y Z