Song name
# A B C D E F G H I J K L M N O P Q R S T U V W X Y Z

Primus - The Carpenter And The Dainty Bride tab

Artist: Primus
Song: The Carpenter and the Dainty Bride
Album: Animals Should Not Try to Act Like People EP (2003)
Tuning: E-A-D-G-B-e
Tabbed by: Jeremy Hill

 t - Tremelo Pick
 b - bend
 ^ - keep bending
 + - harmonic

Intro/outro:
e|-------------------------------------|
B|-------------------------------------|
G|-------------------------------------|
D|--9-9---9-7-7---7-9-9---9-1010--7-7--|
A|--8-8---8-6-6---6-8-8---8-9-9---6-6--|
E|--7-7---7-5-5---5-7-7---7-8-8---5-5--|


Verse:
e|--0-------------------0--------------------7-----|
B|-----6\\\-x-x-5--5-------6\\\-x-x---5-5/9----9---|
G|--------------3--3-------------------------------|
D|-------------------------------------------------|
A|-------------------------------------------------|
E|-------------------------------------------------|


Solo: w/ Delay
     Let Ring
e|---------------------------------------5~-7--7b---7t-5t-4t-10t-/-19--19---10/12-----10\\\--|
B|------------------4------------------6~------6b----------------------19----------10--------|
G|-4~---4---4b------4-4/7-------4/7--7~------------------------------------------------------|
D|----3---3----3----4-----5h7p5--------------------------------------------------------------|
A|-------------------------------------------------------------------------------------------|
E|-------------------------------------------------------------------------------------------|


e|--------------------------7~----------------------------------------|
B|---3+t/12+t------------10~--------------12-12--12-12-12b^-12t^---0--|
G|---------------------8~---------------------------------------------|
D|-------------7b8-b7------------9-9-9-9--9--9------------------------|
A|--------------------------------------------------------------------|
E|--------------------------------------------------------------------|


e|----------------------------------------------------------------|
B|-----------------------------------------------------------7+~--|
G|-----------------------------------------------------------7+~--|
D|--9--10--9--7--9-9---9--10--9--7--9-9---9--10--9--7--9-9---7+~--|
A|----------------------------------------------------------------|
E|----------------------------------------------------------------|
 PM .  .   .  .  . .   .  .   .  .  . .   .  .   .  .  . .
Tap to rate this tab
# A B C D E F G H I J K L M N O P Q R S T U V W X Y Z