Song name
# A B C D E F G H I J K L M N O P Q R S T U V W X Y Z

Primus - The Toys Go Winding Down tab

Didn't see ANY tabs for the guitar...only bass...
Also didn't feel like labeling the guitar parts b/c it's a pretty much straight forward song

Tuning: E Standard

E---------------|
B---------------|
G---------------|
D-8-8-8-8-8-8-8-| (Basically just a bunch of A# power chords then....)
A-8-8-8-8-8-8-8-|
E-6-6-6-6-6-6-6-|

E-----6------------------------|
B---6---6-6-6-6/3-3-3----------|
G-3------------------3-3-1-1-1-| (x2)
D------------------------------|
A------------------------------|
E------------------------------|

E--------------------------|
B--------------------------|
G--------------------------|
D-6-6-6-6/8-----6-6-6-6/8--| (x2 w/heavy-ish distortion)
A-6-6-6-6/8-----6-6-6-6/8--|
E-4-4-4-4/6-----4-4-4-4/6--|

E--------------------------------------------------------------------|
B--------------------------------------------------------------------|
G--------------------------------------------------------------------|
D--------------------------------------------------------------------|
A-6-6-6-6/8-----6-6-6-6/8-----6-6-6-6/8-----6-6-6-6/8---10-11-10-6-8-|
E-4-4-4-4/6-----4-4-4-4/6-----4-4-4-4/6-----4-4-4-4/6---8--9--8--4-6-|

CHORUS
E------------------------------|
B------------------------------|
G------------------------------|
D-8-8-8-8-8-8-11-10-8----6-6-6-| (x2)
A-8-8-8-8-8-8-x--x--x----4-4-4-|
E-6-6-6-6-6-6-9--8--6----4-4-4-|

E-----------------------------------|
B-----------------------------------|
G-----------------------------------|
D-----8---3-3-3-3/1-0-0-------------|
A---8--------------------1-1--------|
E-6---------------------------4-4-4-|


E--------------------------------------------------------------------|
B--------------------------------------------------------------------|
G--------------------------------------------------------------------|
D--------------------------------------------------------------------|
A-6-6-6-6/8-----6-6-6-6/8-----6-6-6-6/8-----6-6-6-6/8---10-11-10-6-8-|
E-4-4-4-4/6-----4-4-4-4/6-----4-4-4-4/6-----4-4-4-4/6---8--9--8--4-6-|

CHORUS
E------------------------------|
B------------------------------|
G------------------------------|
D-8-8-8-8-8-8-11-10-8----6-6-6-| (x2)
A-8-8-8-8-8-8-x--x--x----4-4-4-|
E-6-6-6-6-6-6-9--8--6----4-4-4-|

Then there is a solo but it's too silent for me to be able to hear, so there it is ENJOY
Tap to rate this tab
# A B C D E F G H I J K L M N O P Q R S T U V W X Y Z