Song name
# A B C D E F G H I J K L M N O P Q R S T U V W X Y Z

Primus - Groundhogs Day tab

Groundhogs Day
by
Primus

I couldn't find any good tabs for this song so I decided to try it out. I don't 
know if its 100% correct but here you go.

Lyrics:
When I woke up this mornin I felt a pang.
I was hungerin for some apple pie.
Stumble in the bathroom, hung my hog a little bit.
Washed the sleep out of my eye.
Oh yeah, its gonna be a fine day.
Scratched myself a bit.
Poured me out a bowl-a corn chex.
Closest thing I could find to apple pie.
Lingerin taste of toothpaste
Made the milk go down a bit funny.
But you know, them chex they do satisfy.
Oh yeah, this'll be a fine day.
So, after my mornin rise-n-shine and eat-n-clean.
Had my mind set to hit them streets.
Drizzle from the night left cold puddles out.
Had my black stomp-boots on my feet.
Its my day.

Since I was in kneepants my pop had tried to make me realize. if i
Set my mind down to it I could be a big man in the public eye. so
With my big blue collar on, I set out to find the easy way. what an
Ice cold bath it was when I found you had to pay to play. to taste
The taste its a tease that never would subside. the taste is strong
But soured by my learned eyes. well, if a woodchuck could chuck wood,
Hed get down on his knees to pray. this little snappy boy might see
The light this ground hogs day.

00:09
|--------------------------------|
|--------------------------------|
|--------------------------------|
|2-------------------------------|
|2-------------------------------|
|0--------12/----3--6----8---11--|

00:21
|--------------------------------------------------------------------|
|-----------11-11b13r11-----10b11r11--------10b11r10-----------------|
|---------9---------------------------9/7-------------9/7--7b9--5/7--|
|----8-10------------------------------------------------------------|
|--7-----------------------------------------------------------------|
|8-------------------------------------------------------------------|

00:37
|-----------------------------------------------------------|
|-----------------------------------------------------------|
|----10--------10----9-------------10--------10-----9-------|
|8-------------------8-----8----8-------------------8-----8-|
|10--------10-----10------------10-------10-----10----------|
|-----------------------------------------------------------|

00:54
|---------------------------------------------------------------|
|---------------------------------------------------------------|
|----------2----2-2---2-------------------2----2-2----2--12b14--|
|14/-------2----2-2---2--12b14------------2----2-2----2---------|
|12/---0-0----0-------0---------12/---0-0----0--------0---------|
|------------------3-------------------------------3------------|

01:02      
|--------------------------------------------------------------------|
|-----------11-11b13r11-----10b11r11--------10b11r10-----------------|
|---------9---------------------------9/7-------------9/7--7b9--5/7--|
|----8-10------------------------------------------------------------|
|--7-----------------------------------------------------------------|
|8-------------------------------------------------------------------|

01:19
|-----------------------------------------------------------|
|-----------------------------------------------------------|
|----10--------10----9-------------10--------10-----9-------|
|8-------------------8-----8----8-------------------8-----8-|
|10--------10-----10------------10-------10-----10----------|
|-----------------------------------------------------------|

01:36
|---------------------------------------------------------------|
|---------------------------------------------------------------|
|----------2----2-2---2-------------------2----2-2----2--12b14--|
|14/-------2----2-2---2--12b14------------2----2-2----2---------|
|12/---0-0----0-------0---------12/---0-0----0--------0---------|
|------------------3-------------------------------3------------|
                          
|---------------------------------------------------------------|
|---------------------------------------------------------15b17-|
|----------2----2-2---2-------------------2----2-2--------------|
|14/-------2----2-2---2--12b14------------2----2-2--------------|
|12/---0-0----0-------0---------12/---0-0----0-------/19--------|
|------------------3-------------------------------3------------|

01:52      
|--------------------------------------------------------------------------|
|-----------11-11b13r11---10b11----11-11-11~--10-10b11-11r10---------------|
|---------9--------------------------------------------------9/7--7-7b9-5/7|
|----8-10------------------------------------------------------------------|
|--7-----------------------------------------------------------------------|
|8-------------------------------------------------------------------------|

02:08
|-----------------------------------------------------------|
|-----------------------------------------------------------|
|----10--------10----9-------------10--------10-----9-------|
|8-------------------8-----8----8-------------------8-----8-|
|10--------10-----10------------10-------10-----10----------|
|-----------------------------------------------------------|

|-----------------------------------------------------------|
|-----------------------------------------------------------|
|----10--------10----9-------------10--------10-----9-------|
|8-------------------8-----8----8-------------------8-----8-|
|10--------10-----10------------10-------10-----10----------|
|-----------------------------------------------------------|

02:41
|------------------------------------------------------------------14-12--|
|----12-12-12-12/15-15-15-15-19p15-15-15---12-12-12-12/15-15-15-15--------|
|-------------------------------------------------------------------------|
|11/----------------------------------------------------------------------|
|11/----------------------------------------------------------------------|
|-9/----------------------------------------------------------------------|

|------------------------------------------------------------------14-12--|
|----12-12-12-12/15-15-15-15-19p15-15-15---12-12-12-12/15-15-15-15--------|
|-------------------------------------------------------------------------|
|11/----------------------------------------------------------------------|
|11/----------------------------------------------------------------------|
|-9/----------------------------------------------------------------------|

|------------------------------------------------------------------14-12--|
|12-12-12-12/15-15-15-15-19p15-15-15-------12-12-12-12/15-15-15-15--------|
|-------------------------------------------------------------------------|
|-------------------------------------11/---------------------------------|
|-------------------------------------11/---------------------------------|
|--------------------------------------9/---------------------------------|

|------------------------------------------------------------------14-12--|
|12-12-12-12/15-15-15-15-19p15-15-15-------12-12-12-12/15-15-15-15--------|
|-------------------------------------------------------------------------|
|-------------------------------------11/---------------------------------|
|-------------------------------------11/---------------------------------|
|--------------------------------------9/---------------------------------|

|--------------------------------------------------------------------|
|/12-12-12-12-12-12-12-17p12-12-12---/12-12-12-12----12----12--------|
|-------------------------------------------------12----12----12-----|
|----------------------------------------------------------------14--|
|--------------------------------------------------------------------|
|--------------------------------------------------------------------|

|--------------------------------------------------------------------|
|/12-12-12-12-12-12-12-17p12-12-12---/12-12-12-12----12----12--------|
|-------------------------------------------------12----12----12-----|
|----------------------------------------------------------------14--|
|--------------------------------------------------------------------|
|--------------------------------------------------------------------|

|--------------------------------------------------------------------|
|/12-12-12-12-12-12-12-17p12-12-12---/12-12-12-12----12----12--------|
|-------------------------------------------------12----12----12-----|
|----------------------------------------------------------------14--|
|--------------------------------------------------------------------|
|--------------------------------------------------------------------|

|------------------------------------------------------------14-12---|
|/12-12-12-12-12-12-12-17p12-12-12---12-12-12-12/15-15-15-15---------|
|--------------------------------------------------------------------|
|--------------------------------------------------------------------|
|--------------------------------------------------------------------|
|--------------------------------------------------------------------|

|------------------------------------------------------------------14-12--|
|----12-12-12-12/15-15-15-15-19p15-15-15---12-12-12-12/15-15-15-15--------|
|-------------------------------------------------------------------------|
|11/----------------------------------------------------------------------|
|11/----------------------------------------------------------------------|
|-9/----------------------------------------------------------------------|

|------------------------------------------------------------------14-12--|
|----12-12-12-12/15-15-15-15-19p15-15-15---12-12-12-12/15-15-15-15--------|
|-------------------------------------------------------------------------|
|11/----------------------------------------------------------------------|
|11/----------------------------------------------------------------------|
|-9/----------------------------------------------------------------------|

|--------------------------------------------------------------------|
|/12-12-12-12-12-12-12-17p12-12-12---/12-12-12-12----12----12--------|
|-------------------------------------------------12----12----12-----|
|----------------------------------------------------------------14--|
|--------------------------------------------------------------------|
|--------------------------------------------------------------------|

|--------------------------------------------------------------------|
|/12-12-12-12-12-12-12-17p12-12-12---/12-12-12-12----12----12--------|
|-------------------------------------------------12----12----12-----|
|----------------------------------------------------------------14--|
|--------------------------------------------------------------------|
|--------------------------------------------------------------------|

|--------------------------------------------------------------------|
|/12-12-12-12-12-12-12-17p12-12-12---/12-12-12-12----12----12--------|
|-------------------------------------------------12----12----12-----|
|----------------------------------------------------------------14--|
|--------------------------------------------------------------------|
|--------------------------------------------------------------------|

|------------------------------------------------------------14-12---|
|/12-12-12-12-12-12-12-17p12-12-12---12-12-12-12/15-15-15-15---------|
|--------------------------------------------------------------------|
|--------------------------------------------------------------------|
|--------------------------------------------------------------------|
|--------------------------------------------------------------------|

|--------------------------------------------------------------14-12--|
|12-12-12-12/15-15-15-15-19p15-15-15---12-12-12-12/15-15-15-15--------|
|---------------------------------------------------------------------|
|---------------------------------------------------------------------|
|---------------------------------------------------------------------|
|---------------------------------------------------------------------|

|----------------------------------------------------------------|
|-----12-12-12-12/15-15-15-15-19p15-15---------------------------|
|----------------------------------------------------12--11-14---|
|11/-------------------------------------11--14--13--12--11-14---|
|11/-------------------------------------11--14--13--10---9-12---|
|-9/--------------------------------------9--12--11--------------|

|----------------------------------------------------------------|
|-----12-12-12-12/15-15-15-15-19p15-15---------------------------|
|----------------------------------------------------12--11-14---|
|11/-------------------------------------11--14--13--12--11-14---|
|11/-------------------------------------11--14--13--10---9-12---|
|-9/--------------------------------------9--12--11--------------|

|------------------------------------------|
|-11-11-11-11-11-11-11-11-11-11-11-11-11\--|
|-11-11-11-11-11-11-11-11-11-11-11-11-11\--|
|-11-11-11-11-11-11-11-11-11-11-11-11-11\--|
|--9--9--9--9--9--9--9--9--9--9--9--9--9\--|
|------------------------------------------|

03:52
|--------------------------------------------------|
|--------------------------------------------------|
|-8h9p8----8h9p8----8h9p8----8h9p8----8h9p8----8h9p|
|-------11-------10-------11-------11-------11-----|
|--------------------------------------------------|
|--------------------------------------------------|

|------------------------------------------------|
|------------------------------------------------|
|-8----8h9p8----8h9p8----8h9p8----8h9s8----8s9---|
|---11-------11-------11-------11-------10-------|
|------------------------------------------------|
|------------------------------------------------|

|-------------------------------------------------|
|-------------------------------------------------|
|-8h9p8-------------------------------------------|
|-------11-(11)----9h11-9-8--(8)----(8)-8-8h9p8-6-|
|-------------------------------------------------|
|-------------------------------------------------|

|-------------------------------------------------------------------------|
|------------------------------------------------9-12p9----9--------------|
|------------------------9----9--11p9----9-11h12--------12---12p11-9------|
|-(6)s8-8h9p8-10s11--11---11---------11-----------------------------11-11-|
|-------------------------------------------------------------------------|
|-------------------------------------------------------------------------|

|----------------------------------------------|
|----------------------------------------------|
|--------------------------------------------6-|
|-11p9-/9-9-9-8-8s6-8-8-8--(8)b9----(8)---/8---|
|----------------------------------------------|
|----------------------------------------------|

|---9--8-8--6--------------------------------|
|-------------9b11-------(9)r-(9)-6-6--6-6-6-|
|-6------------------------------------------|
|--------------------------------------------|
|--------------------------------------------|
|--------------------------------------------|

|---------------------------12-12-12-12-12-12-12-12-12-12-12-12-12-12-12-|
|---------------------------11-11-11-11-11-11-11-11-11-11-11-11-11-11-11-|
|-9--9-9-9-9-9-9-9-9-9-9-----6--6--6--6--6--6--6--6--9--9--9--9--9--9--9-|
|------------------------------------------------------------------------|
|----7-7-7-7-7-7-7-7-7-7-------------------------------------------------|
|------------------------------------------------------------------------|

04:16
|--------------------------------------------------------------14-12--|
|12-12-12-12/15-15-15-15-19p15-15-15---12-12-12-12/15-15-15-15--------|
|---------------------------------------------------------------------|
|---------------------------------------------------------------------|
|---------------------------------------------------------------------|
|---------------------------------------------------------------------|

|----------------------------------------------------------------|
|-----12-12-12-12/15-15-15-15-19p15-15---------------------------|
|----------------------------------------------------12--11-14---|
|11/-------------------------------------11--14--13--12--11-14---|
|11/-------------------------------------11--14--13--10---9-12---|
|-9/--------------------------------------9--12--11--------------|

|--------------------------------------------------------------14-12--|
|12-12-12-12/15-15-15-15-19p15-15-15---12-12-12-12/15-15-15-15--------|
|---------------------------------------------------------------------|
|---------------------------------------------------------------------|
|---------------------------------------------------------------------|
|---------------------------------------------------------------------|

|-----------------------------------------------------|
|-----12-12-12-12/15-15-15-15-19p15-15----------------|
|-----------------------------------------------------|
|11/-------------------------------------11--14--13~--|
|11/-------------------------------------11--14--13~--|
|-9/--------------------------------------9--12--11~--|

|------------------------------------------------------|
|------------------------------------------------------|
|------------------------------------------------------|
|---x-x-13-x-x-13-x-x-13-x-x--13-x-x-13---11--14--13~--|
|---x-x-11-x-x-11-x-x-11-x-x--13-x-x-13---11--14--13~--|
|---x-x-11-x-x-11-x-x-11-x-x--11-x-x-11-0--9--12--11~--|

|------------------------------------------------------|
|------------------------------------------------------|
|------------------------------------------------------|
|---x-x-13-x-x-13-x-x-13-x-x--13-x-x-13---11--14--13~--|
|---x-x-11-x-x-11-x-x-11-x-x--13-x-x-13---11--14--13~--|
|---x-x-11-x-x-11-x-x-11-x-x--11-x-x-11-0--9--12--11~--|

|------------------------------------------------------------------|
|------------------------------------------------------------------|
|-------------------------------------------------------------12---|
|---x-x-13-x-x-13-x-x-13-x-x--13-x-x-13---11--14--11--14--13--12---|
|---x-x-11-x-x-11-x-x-11-x-x--13-x-x-13---11--14--11--14--13--10---|
|---x-x-11-x-x-11-x-x-11-x-x--11-x-x-11-0--9--12---9--12--11-------|

|-------------------------------------------------|
|-11-11-11-11-11-11-11-11-11-11-11-11-11-11-11-11-|
|-11-11-11-11-11-11-11-11-11-11-11-11-11-11-11-11-|
|-11-11-11-11-11-11-11-11-11-11-11-11-11-11-11-11-|
|--9--9--9--9--9--9--9--9--9--9--9--9--9--9--9--9-|
|-------------------------------------------------|

|-----------------------------------------|
|-11--11-11-11-11-11-11-11-11-11-11-11-11-|
|-11--11-11-11-11-11-11-11-11-11-11-11-11-|
|-11--11-11-11-11-11-11-11-11-11-11-11-11-|
|--9---9--9--9--9--9--9--9--9--9--9--9--9-|
|-----------------------------------------|

|---------------------------------------------|
|-11--11-11-11-11-11-11-11-11-11-11-----------|
|-11--11-11-11-11-11-11-11-11-11-11-----------|
|-11--11-11-11-11-11-11-11-11-11-11-11\-------|
|--9---9--9--9--9--9--9--9--9--9--9-11\-------|
|------------------------------------9\-------|

 h   - hammer-on
 p   - pull-off
 b   - bend
 pb  - pre-bend
 r   - bend release (if no number after the r, then release immediately)
 /\  - slide into or out of (from/to "nowhere")
 s   - legato slide
 S   - shift slide
  - natural harmonic
[n]  - artificial harmonic
n(n) - tapped harmonic
 ~   - vibrato
 tr  - trill
 T   - tap
 TP  - trem. picking
 PM  - palm muting
\n/  - tremolo bar dip; n = amount to dip
 \n  - tremolo bar down
 n/  - tremolo bar up
/n\  - tremolo bar inverted dip
 =   - hold bend; also acts as connecting device for hammers/pulls
  - volume swell (louder/softer)
 x   - on rhythm slash represents muted slash
 o   - on rhythm slash represents single note slash


And that is it. Good day.
Tap to rate this tab
# A B C D E F G H I J K L M N O P Q R S T U V W X Y Z