Song name
# A B C D E F G H I J K L M N O P Q R S T U V W X Y Z

Primus - Shake Hands With Beef tab

Tabbed by: chrtes

Email: capslock44107@yahoo.com

Tuning: EADgbe


| /  slide up
| \  slide down
| h  hammer-on
| p  pull-off
| ~  vibrato
| +  harmonic
| x  Mute note
| b  Bend



Put everything in order yourself.


e|-------------------------------------------|
B|-------------------------------------------|
G|-------------------------------------------|
D|-9-12-------------9-9-9-9-12---------------|
A|-7-10--5-6-7-6-5--7-7-7-7-10--5-6-7-6-5----|
E|-------------------------------------------|



e|-------------------|
B|-------------------|
G|-------------------|
D|-------------------|
A|--8-7-7-7-8-8-7----|
E|--6-5-5-5-6-6-5----|



e|----------------------------------------------|
B|------------------------------------5---------|
G|--------------------------------------4-5-----|
D|----------------------------------0-----------|
A|--8-7-7-7-8-8-7----5-4-4-4-5-5-4--------------|
E|--6-5-5-5-6-6-5----3-2-2-2-3-3-2--------------|



solo

e|----------------------------------------------------------------|
B|----------------------------------------------------------------|
G|--------------------------------------------10-11-12/15-14------|
D|-----13---11--10-8-7-8-10-8-7--------14-17----------------------|
A|--12---12----------------------15-16----------------------------|
E|----------------------------------------------------------------|




e|--------------------------------------------------------------|
B|--17-16-15-17-16-15-------------------------------------------|
G|---------------------------12-12-10---7-7---5---5---5---------|
D|-----------------------10-----------7-----7---7---7---7-7-----|
A|--------------------12----------------------------------------|
E|--------------------------------------------------------------|



e|----------------------------------------------------------------------|
B|-----15-----17-16-17-16-17-16-20---18-18-------------------8-8-7-8----|
G|--15----15-------------------------------16-16-16-16-15~---7-7-6-7----|
D|----------------------------------------------------------------------|
A|----------------------------------------------------------------------|
E|----------------------------------------------------------------------|

end solo


e|-----0--------------|
B|-----5--------------|
G|-----4--------------|
D|--0-----\12---------|
A|--------\10---------|
E|--------------------|


e|-------------------------------------------|
B|-------------------------------------------|
G|-------------------------------------------|
D|-9-12-------------9-9-9-9-12---------------|
A|-7-10--5-6-7-6-5--7-7-7-7-10--5-6-7-6-5----|
E|-------------------------------------------|



e|-------------------------------------------|
B|-------------------------------------------|
G|-------------------------------------------|
D|-------------------------------------------|
A|-------------------------------------------|
E|--15-14-13-16-15-14-17-16-15-18-17-16------|


Tap to rate this tab
 
# A B C D E F G H I J K L M N O P Q R S T U V W X Y Z