Song name
# A B C D E F G H I J K L M N O P Q R S T U V W X Y Z

Primus - John The Fisherman tab

                            John the Fisherman
                           Made famous by Primus
                      Included in the Album : Frizzle Fry

Tabbed by mwluvkerrnag (matty wall)
Any comments plz send them 2: juliawall@btinternet.com


Into:
E|-----------------------------------------------------|
B|-----------------------------------------------------|
G|--4-5-6---4-5-6---4-5-6---4-5-6-----4-5-7-6----------|
D|--4-5-6---4-5-6---4-5-6---4-5-6-----4-5-7-6----------|
A|--2-3-4---2-3-4---2-3-4---2-3-4-----2-3-5-4----------|
E|-----------------------------------------------------|

Verse:
E|-----------------------------------------------------|
B|--9--9----9---9--9----6------------------------------|
G|-10-10---10--10-10----7------------------------------|
D|-----------------------------------------------------|
A|-----------------------------------------------------|
E|-----------------------------------------------------|

E|----------------------------------*13----------------|
B|--9--9----9---9--9----6/5/9-----*14-*14--------------|
G|-10-10---10--10-10----7/6/10-------------------------|
D|-----------------------------------------------------|
A|-----------------------------------------------------|
E|-----------------------------------------------------|

E|-------------------------------------*13-------------|
B|--9--9----9---9--9----6-5-6-8-9----*14-*14-----------|
G|-10-10---10--10-10----7-6-7-9-10---------------------|
D|-----------------------------------------------------|
A|-----------------------------------------------------|
E|-----------------------------------------------------|

Chorus:
E|-----------------------------------------------------|
B|-----------------------------------------------------|
G|--4-5-6---4-5-6---4-5-6---4-5-6-----4-5-7-6----------|
D|--4-5-6---4-5-6---4-5-6---4-5-6-----4-5-7-6----------|
A|--2-3-4---2-3-4---2-3-4---2-3-4-----2-3-5-4----------|
E|-----------------------------------------------------|

E|-----------------------------------------------------|
B|--9--9----9---9--9----6------------------------------|
G|-10-10---10--10-10----7------------------------------|
D|-----------------------------------------------------|
A|-----------------------------------------------------|
E|-----------------------------------------------------|

E|----------------------------------*13----------------|
B|--9--9----9---9--9----6/5/9-----*14-*14--------------|
G|-10-10---10--10-10----7/6/10-------------------------|
D|-----------------------------------------------------|
A|-----------------------------------------------------|
E|-----------------------------------------------------|

E|-------------------------------------*13-------------|
B|--9--9----9---9--9----6-5-6-8-9----*14-*14-----------|
G|-10-10---10--10-10----7-6-7-9-10---------------------|
D|-----------------------------------------------------|
A|-----------------------------------------------------|
E|-----------------------------------------------------|

E|-----------------------------------------------------|
B|-----------------------------------------------------|
G|--4-5-6---6---4-5-6----------------------------------|
D|--4-5-6---7---4-5-6----------------------------------|
A|--2-3-4-------2-3-4----------------------------------|
E|-----------------------------------------------------|

E|----------------------------------*13----------------|
B|--9--9----9---9--9----6/5/9-----*14-*14--------------|
G|-10-10---10--10-10----7/6/10-------------------------|
D|-----------------------------------------------------|
A|-----------------------------------------------------|
E|-----------------------------------------------------|

E|----------------------------------*13----------------|
B|--9--9----9---9--9----6/5/9-----*14-*14--------------|
G|-10-10---10--10-10----7/6/10-------------------------|
D|-----------------------------------------------------|
A|-----------------------------------------------------|
E|-----------------------------------------------------|

E|-------------------------------------*13-------------|
B|--9--9----9---9--9----6-5-6-8-9----*14-*14-----------|
G|-10-10---10--10-10----7-6-7-9-10---------------------|
D|-----------------------------------------------------|
A|-----------------------------------------------------|
E|-----------------------------------------------------|

Light Distortion on guitar:
E|-----------------------------------------------------|
B|-----------------------------------------------------|
G|--4-5-6---4-5-6---4-5-6---4-5-6-----4-5-7-6----------|
D|--4-5-6---4-5-6---4-5-6---4-5-6-----4-5-7-6----------|
A|--2-3-4---2-3-4---2-3-4---2-3-4-----2-3-5-4----------|
E|-----------------------------------------------------|

Thanks for reading
plz vote!!!
thx!


Tap to rate this tab
# A B C D E F G H I J K L M N O P Q R S T U V W X Y Z