Song name
# A B C D E F G H I J K L M N O P Q R S T U V W X Y Z

Primus - Hoinfodaman tab

Primus, HOINFODAMAN

Tuning: EADGBe

e|------------|
B|------------|
G|------------|
D|------------|
A|------------|
E|-0s12s15----|

e|--------------------------|
B|--------------------------|
G|--------------------------|
D|---------3s5v-------------|
A|---5h7-5------------5s7v--|
E|-0-------------0-5h7------|X4

Verse

e|-------------------|
B|-------------------|
G|-------------------|
D|-------------5v----|
A|-------5h7-5-------|
E|-0--0-0------------|

e|-------------------|
B|-------------------|
G|-------------------|
D|-------------------|
A|---------5-7v------|
E|-0-0-5h7-----------|

1:00

e|---------------12-17v------------|
B|----------5-10----------10-------|
G|--5-2-8-5------------------9-----|
D|----------------------------10-7-|
A|---------------------------------|
E|---------------------------------| X 4

Then return to the riff
played in the verse.

Then you have to learn the
interlude. At least i think
that is what i think it`s called.

e|--------------------------|
B|--------------------------|
G|--------------------------|
D|-9s5-3h5-5--12s5-3h5-5----|
A|--------------------------|
E|--------------------------| X4

Then back to the riff below.

e|---------------12-17v------------|
B|----------5-10----------10-------|
G|--5-2-8-5------------------9-----|
D|----------------------------10-7-|
A|---------------------------------|
E|---------------------------------| X4

Then play the riff of 
the verse once again
untill the end of the
song.
Tap to rate this tab
# A B C D E F G H I J K L M N O P Q R S T U V W X Y Z