Song name
# A B C D E F G H I J K L M N O P Q R S T U V W X Y Z

Primus - Last Salmon Man tab

Last salmon man, by Primus

Tuning: EADGBe

Intro 

e|----------------------------------|
B|----------------------------------|
G|--------------10``````````12``````|
D|-12``````````---------------------|
A|----------------------------------|
E|----------------------------------|

e|----------------------------------|
B|------------15s17b----------------|
G|-9````````------------------------|
D|----------------------------------|
A|----------------------------------|
E|----------------------------------|

e|----------------------------------|
B|----------------------------------|
G|--------------10``````````12``````|
D|-12``````````---------------------|
A|----------------------------------|
E|----------------------------------|


e|----------------------------------|
B|-7--5--7--------------------------|
G|-7--5--7--2--4--5--10--9----------|
D|----------2--4--5-----------------|
A|-------------2--3---8--7----------|
E|----------------------------------|


Verse 1:30
 

e|10-10-10-10-10-10-10-10| TS
B|10-10-10-10-10-10-10-10|
G|-----------------------|
D|-----------------------|
A|-----------------------|
D|-----------------------|

e|-10-8-10-5-7-8-13-12---| TS
B|-10-8-10-5-7-8-13-12---|
G|-----------------------|
D|-----------------------|
A|-----------------------|
E|-----------------------|

e|------------------|
B|-6-6-6-6-6-6-6----|
G|-7-7-7-7-7-7-7----|
D|------------------|
A|------------------|
D|------------------|



Tap to rate this tab
# A B C D E F G H I J K L M N O P Q R S T U V W X Y Z