Song name
# A B C D E F G H I J K L M N O P Q R S T U V W X Y Z

Primus - Pudding Time tab

There were no tabs for this song, and I think this is 100% right. This was hard to find 
out so rate it 5 stars!


Standard tuning: E A D G B E


 * = Natural harmonic
PM.= Palm mute
 x = Ghost note
 p = Pull-off
 p = Hammer-on
 T = Tap
 / = slide up
 \ = slide down
 ~ = Vibrato
 t = Tremolo bar dip
 b = bend
 r = Release (tremolo bar or bend)


Intro:

e|----------------0-------------------------|
B|----------------0--------7*---------------|
G|----------------0--12*--------5*----------|
D|--2-2---2-2---2-2-------------------------|
A|--2-2---2-2---2-2-------------------------|
E|--0-0---0-0---0-0-------------------------|


e|--------------------------------|
B|--------------------------------|
G|--------------------------------|
D|----------9-9------9----9----9--| x2
A|----------7-7------7----7----7--|
E|--0-0-0-0-0-0--0-0-0--0-0--0-0--|
    PM. . .      . .    .    .


e|--------------------------0---|
B|--------------------------0---|
G|--x-x-x-x-15--x-15--x-15--0---|
D|--x-x-x-x-14--x-14--x-14------| x8
A|--x-x-x-x---------------------|
E|------------------------------|


e|--12h15p12---------12h15p12---------12h15p12----------|
B|-----------14---------------14---------------14~~-----|
G|------------------------------------------------------|
D|------------------------------------------------------|
A|------------------------------------------------------|
E|------------------------------------------------------|


e|--12h15p12---------12h15p12---------------------------|
B|-----------14---------------14------------------------|
G|------------------------------------12\0tr------------|
D|------------------------------------------------------|
A|------------------------------------------------------|
E|------------------------------------------------------|


e|--12h15p12---------12h15p12---------12h15p12----------|
B|-----------14---------------14---------------14~~-----|
G|------------------------------------------------------|
D|------------------------------------------------------|
A|------------------------------------------------------|
E|------------------------------------------------------|


e|--12h15p12---------12h15p12---------------------------|
B|-----------14---------------14------------------------|
G|------------------------------------0---/12-----------|
D|------------------------------------------------------|
A|------------------------------------------------------|
E|------------------------------------------------------|



Verse 1:

Ok, this requires some explanation. The harmonics are not actually harmonics, you just 
need to strum the tiny part of the strings on the headstock, making a high pitch sound.

                  T              T
e|-----*------------------------------*-----|
B|-----*------------------------------*-----|
G|-----*--------------x-10------------*-----|
D|-----*--------------x-10-------18---*-----|
A|-----*--------------x-8-------------*-----|
E|-----*-----0h2--16--------0h2-------*-----|


         T              T
e|---------------------------*-----|
B|---------------------------*-----|
G|-----------x-10------------*-----|
D|-------18--x-10-------18---*-----|
A|-----------x-8-------------*-----|
E|--0h2------------0h2-------*-----|


         T
e|---------------------------------|
B|---------------------------------|
G|-----------x-10-------16b18------|
D|-------18--x-10------------------|
A|-----------x-8-------------------|
E|--0h2------------0h2-------------|



Chorus:

e|---------------------------------------------|
B|---------------------------------------------|
G|--6----/11b12----\6----/16b17r16----\12------|
D|---------------------------------------------|
A|---------------------------------------------|
E|---------------------------------------------|


e|---------------------------------------------|
B|---------------------------------------------|
G|--6----/11b12----\6----/16b17r16----\11------|
D|---------------------------------------------|
A|---------------------------------------------|
E|---------------------------------------------|



Verse 2:

                  T              T
e|-----*------------------------------*-----|
B|-----*------------------------------*-----|
G|-----*--------------x-10------------*-----|
D|-----*--------------x-10-------18---*-----|
A|-----*--------------x-8-------------*-----|
E|-----*-----0h2--16--------0h2-------*-----|


         T              T
e|---------------------------*-----|
B|---------------------------*-----|
G|-----------x-10------------*-----|
D|-------18--x-10------------*-----|
A|-----------x-8-------------*-----|
E|--0h2------------0h2--16---*-----|


         T              T
e|---------------------------*-----|
B|---------------------------*-----|
G|-----------x-10------------*-----|
D|-----------x-10-------18---*-----|
A|-----------x-8-------------*-----|
E|--0h2--16--------0h2-------*-----|

         T
e|---------------------------------|
B|---------------------------------|
G|-----------x-10-------16b18------|
D|-------18--x-10------------------|
A|-----------x-8-------------------|
E|--0h2------------0h2-------------|



Chorus:

e|---------------------------------------------|
B|---------------------------------------------|
G|--6----/11b12----\6----/16b17r16----\11------|
D|---------------------------------------------|
A|---------------------------------------------|
E|---------------------------------------------|



Break:

e|--------------------------0---|
B|--------------------------0---|
G|--x-x-x-x-15--x-15--x-15--0---|
D|--x-x-x-x-14--x-14--x-14------| x8
A|--x-x-x-x---------------------|
E|------------------------------|


e|--12h15p12---------12h15p12---------12h15p12----------|
B|-----------14---------------14------------------------|
G|---------------------------------------------12\5/12--|
D|------------------------------------------------------|
A|------------------------------------------------------|
E|------------------------------------------------------|


e|--12h15p12---------12h15p12---------------------------|
B|-----------14---------------14------------------------|
G|------------------------------------12\5/12-----------|
D|------------------------------------------------------|
A|------------------------------------------------------|
E|------------------------------------------------------|


e|--------------------------0---|
B|--------------------------0---|
G|--x-x-x-x-15--x-15--x-15--0---|
D|--x-x-x-x-14--x-14--x-14------| x4
A|--x-x-x-x---------------------|
E|------------------------------|



Verse 3:

                        T              T
e|--0-----*-----*---------------------------*------|
B|--0-----*-----*---------------------------*------|
G|--0-----*-----*-----------x-10------------*------|
D|--------*-----*-------18--x-10-------18---*------|
A|--------*-----*-----------x-8-------------*------|
E|--------*-----*--0h2------------0h2-------*------|


         T              T
e|---------------------------*-----|
B|---------------------------*-----|
G|-----------x-10------------*-----|
D|-------18--x-10-------18---*-----|
A|-----------x-8-------------*-----|
E|--0h2------------0h2-------*-----|


         T              T
e|---------------------------------|
B|---------------------------------|
G|-----------x-10-----------x-10---|
D|-----------x-10-----------x-10---|
A|-----------x-8------------x-8----|
E|--0h2--16--------0h2--16---------|


         T              T
e|---------------------------------|
B|---------------------------------|
G|-----------x-10------------------|
D|-------18--x-10-------18---------|
A|-----------x-8-------------------|
E|--0h2------------0h2-------------|



Bridge:

e|------------------------------------------------|
B|------------------------------------------------|
G|------------------------------------------------|
D|------------------------------------------------| x3
A|--7-107-107-107/8\7-7--7-107-107/8\7---7/8\7-7--|
E|--5-8-5-8-5-8-5/6\5-5--5-8-5-8-5/6\5---5/6\5-5--|


e|------------------------------------------------|
B|------------------------------------------------|
G|------------------------------------------------|
D|------------------------------------------------| x2
A|--7-107-107-107/8\7-7--7-107-101313131313131313-|
E|--5-8-5-8-5-8-5/6\5-5--5-8-5-8-1111111111111111-|


e|------------------------------------------------|
B|------------------------------------------------|
G|------------------------------------------------|
D|------------------------------------------------| x2
A|--7-107-107-107/8\7-7--7-107-101313121211111010-|
E|--5-8-5-8-5-8-5/6\5-5--5-8-5-8-111110109-9-8-8--|


e|------------------------------------------------|
B|------------------------------------------------|
G|------------------------------------------------|
D|------------------------------------------------| x1
A|--7-107-10-x-13--x-12--7-107-101515151515151515-|
E|--5-8-5-8--x-11--x-10--5-8-5-8-1313131313131313-|


e|-----------------------------------|
B|-----------------------------------|
G|-----------------------------------|
D|-----------------------------------| x8
A|--7-107-107-107-107-107-107-107-10-|
E|--5-8-5-8-5-8-5-8-5-8-5-8-5-8-5-8--|



Verse 4:

                        T              T
e|--0-----*-----*--------------------------*-----|
B|--0-----*-----*--------------------------*-----|
G|--0-----*-----*-----------x-10-----------*-----|
D|--------*-----*-------18--x-10-------18--*-----|
A|--------*-----*-----------x-8------------*-----|
E|--------*-----*--0h2------------0h2------*-----|


         T              T
e|---------------------------*-----|
B|---------------------------*-----|
G|-----------x-10------------*-----|
D|-------18--x-10-------18---*-----| x2
A|-----------x-8-------------*-----|
E|--0h2------------0h2-------*-----|


         T
e|---------------------------------|
B|---------------------------------|
G|-----------x-10-------16b18------|
D|-------18--x-10------------------|
A|-----------x-8-------------------|
E|--0h2------------0h2-------------|



Chorus:

e|---------------------------------------------|
B|---------------------------------------------|
G|--6----/11b12----\6----/16b17r16----\11------|
D|---------------------------------------------|
A|---------------------------------------------|
E|---------------------------------------------|


Break:

e|--------------------------0---|
B|--------------------------0---|
G|--x-x-x-x-15--x-15--x-15--0---|
D|--x-x-x-x-14--x-14--x-14------| x7
A|--x-x-x-x---------------------|
E|------------------------------|


e|--------------------------0tr-|
B|--------------------------0tr-|
G|--x-x-x-x-15--x-15--x-15--0tr-|
D|--x-x-x-x-14--x-14--x-14------| x1
A|--x-x-x-x---------------------|
E|------------------------------|
Tap to rate this tab
# A B C D E F G H I J K L M N O P Q R S T U V W X Y Z