Song name
# A B C D E F G H I J K L M N O P Q R S T U V W X Y Z

Primus - Pork Soda tab

Tabbed by: notenoughcharac
Email: benjaminret@gmail.com

This is the tab for Pork Soda by Primus. I think it's pretty accurate.

(0:02-0:35)
e|---------------------------------------------------------------------------|
B|-10101010101010---10101010101010---10101010101010---10101010101010---------|
G|---------------------------------------------------------------------------|
D|---------------------------------------------------------------------------|x4
A|---------------------------------------------------------------------------|
E|---------------------------------------------------------------------------|

(Those are 10's)

(0:35-0:41)
e|-101010101010b11---10101010101010---10101010101010-------------------------|
B|-------------------9-9-9-9-9-9-9----9-9-9-9-9-9-9--------------------------|
G|---------------------------------------------------------------------------|
D|---------------------------------------------------------------------------|x1
A|---------------------------------------------------------------------------|
E|---------------------------------------------------------------------------|

Little rest (grab yourself a can o' pork soda...)

(0:50-1:13)
e|---------------------------------------------------------------------------|
B|-10101010101010---10101010101010---10101010101010---10101010101010---------|
G|---------------------------------------------------------------------------|
D|---------------------------------------------------------------------------|x3
A|---------------------------------------------------------------------------|
E|---------------------------------------------------------------------------|

(1:13-1:22)
e|---------------------------------------------------------------------------|
B|---------10101010101010---+7+---10101010101010---10101010-----10101010-----|
G|-+5+-----------------------------------------------------------------------|
D|----+5+--------------------------------------------------------------------|x1
A|---------------------------------------------------------------------------|
E|---------------------------------------------------------------------------|

(That's right, Ler only picks 4 times the last two "10's" sequences)

(1:23-1:28)
e|-10101010101010---10101010101010---10101010101010--------------------------|
B|-9-9-9-9-9-9-9----9-9-9-9-9-9-9----9-9-9-9-9-9-9---------------------------|
G|---------------------------------------------------------------------------|
D|---------------------------------------------------------------------------|x1
A|---------------------------------------------------------------------------|
E|---------------------------------------------------------------------------|

Little rest (grab yourself a can o' pork soda...)


(1:37-1:46)
e|-------------------------------------------------------------11111111------|
B|---------------------10101010\--------1010101010\--------101010101010------|
G|-8b--8888888\---/8b--------------/8b---------------/8b---------------------|
D|---------------------------------------------------------------------------|x1
A|---------------------------------------------------------------------------|
E|---------------------------------------------------------------------------|

(1:47-1:54)
e|---------------------------------------------------------------------------|
B|-----10101010101010---10101010101010---10101010101010-------10101010101010-|
G|---------------------------------------------------------------------------|
D|-5b-----------------------------------------------------7b-----------------|x1
A|---------------------------------------------------------------------------|
E|---------------------------------------------------------------------------|

(1:53-2:01)
e|---------------------------------------------------------------------------|
B|-+7+---10101010101010---+7+-------10101010101010---10101010101010----------|
G|-+7+-----------------------------------------------------------------------|
D|-----------------------------7b---------------------------------------9----|x1
A|---------------------------------------------------------------------------|
E|---------------------------------------------------------------------------|

(2:01-2:06)
e|---------------------------------------------------------------------------|
B|------10101010101010---10101010101010-------------10101010101010-----------|
G|----------------------------------------+7+--------------------------------|
D|--------------------------------------------+7+----------------------------|x1
A|---------------------------------------------------------------------------|
E|---------------------------------------------------------------------------|

(2:06-2:13)
e|------------------------------------99b101010101010---10101010101010-------|
B|-10101010101010---10101010101010-------------------------------------------|
G|---------------------------------------------------------------------------|
D|---------------------------------------------------------------------------|x1
A|---------------------------------------------------------------------------|
E|---------------------------------------------------------------------------|

(2:13-2:18)
e|-----------10b11-11b10101010-----------------------------------------------|
B|-9-------------------------------------------------------------------------|
G|----+7+--------------------------------------------------------------------|
D|---------------------------------------------------------------------------|x1
A|---------------------------------------------------------------------------|
E|---------------------------------------------------------------------------|

END
************************************

| /   slide up
| \   slide down
| h   hammer-on
| p   pull-off
| ~   vibrato
| +   harmonic
| x   Mute note
| b   Bend
| pb  Pre-bend
| br  Bend release
| pbr Pre-bend release
| brb Bend release bend

************************************
Tap to rate this tab
# A B C D E F G H I J K L M N O P Q R S T U V W X Y Z