Song name
# A B C D E F G H I J K L M N O P Q R S T U V W X Y Z

Primus - Camelback Cinema tab

Here it is on guitar. One of Ler's lazier songs.

Verse
e|-------------------------|
B|-------------------------|
G|-------------------------|
D|-------------------------|
A|-0-3-5-0-3-6-0-3-5-0-3-6-|
E|-0-3-5-0-3-6-0-3-5-0-3-6-|

Chorus
e|------------------------------|
B|------------------------------|
G|------------------------------|
D|-5~-7~------------------------|
A|------0-3-5-0-3-6-0-3-5-0-3-6-|
E|------0-3-5-0-3-6-0-3-5-0-3-6-|

During the end
e|------------------------------|
B|-8~-10~-----------------------|
G|------------------------------|
D|------------------------------|
A|------0-3-5-0-3-6-0-3-5-0-3-6-|
E|------0-3-5-0-3-6-0-3-5-0-3-6-|
       
      Not much to it. Still a good song, though.
Tap to rate this tab
# A B C D E F G H I J K L M N O P Q R S T U V W X Y Z