Song name
# A B C D E F G H I J K L M N O P Q R S T U V W X Y Z

Primus - Too Many Puppies tab

----------------------------------------------------------------------------
			      TOO MANY PUPPIES
----------------------------------------------------------------------------
                             ******Primus******
Tuning:Standard

Intro(Wait a while after the bass does its part a 4 times)
e|x-x-x-x-x-x-x-x-x-x-x-x-x-x-x-x-x-x-x-x-x-x-x-x-x-x-x-x-x-x-x|
B|x-x-x-x-x-x-x-x-x-x-x-x-x-x-x-x-x-x-x-x-x-x-x-x-x-x-x-x-x-x-x|
G|x-x-x-x-x-x-x-x-x-x-x-x-x-x-x-x-x-x-x-x-x-x-x-x-x-x-x-x-x-x-x|
D|x-x-x-x-x-x-x-x-x-x-x-x-x-x-x-x-x-x-x-x-x-x-x-x-x-x-x-x-x-x-x|
A|-------------------------------------------------------------|
E|-------------------------------------------------------------|

e|--------------------|\
B|--------------------| \
G|5-5-6-6-7-----------|  >
D|5-5-6-6-7--4-5-4-5-7|  > 4x 
A|3-3-4-4-5--4-5-4-5-7| /
E|-----------2-3-2-3-5|/

e|--------------------|\
B|--------------------| \
G|5-5-6-6-7-----------|  >
D|5-5-6-6-7-----------|  > 4x
A|3-3-4-4-5-----------| /
E|--------------------|/

e|--------------------|\
B|--------------------| \
G|5-5-6-6-7-----------|  >
D|5-5-6-6-7--4-5-4-5-7|  > 2x 
A|3-3-4-4-5--4-5-4-5-7| /
E|-----------2-3-2-3-5|/

e|--------------------|\
B|--------------------| \
G|5-5-6-6-7-----------|  >
D|5-5-6-6-7-----------|  > 2x
A|3-3-4-4-5-----------| /
E|--------------------|/

e|--------------------|\
B|--------------------| \
G|5-5-6-6-7-----------|  >
D|5-5-6-6-7--4-5-4-5-7|  > 4x 
A|3-3-4-4-5--4-5-4-5-7| /
E|-----------2-3-2-3-5|/

e|--------------------|\
B|--------------------| \
G|5-5-6-6-7-----------|  >
D|5-5-6-6-7-----------|  > 4x
A|3-3-4-4-5-----------| /
E|--------------------|/

e|--------------------|\
B|--------------------| \
G|5-5-6-6-7-----------|  >
D|5-5-6-6-7--4-5-4-5-7|  > 2x 
A|3-3-4-4-5--4-5-4-5-7| /
E|-----------2-3-2-3-5|/

e|--------------------|\
B|--------------------| \
G|5-5-6-6-7-----------|  >
D|5-5-6-6-7-----------|  > 4x
A|3-3-4-4-5-----------| /
E|--------------------|/

The Solo is to distorted and random noted for me to tab out.

e|--------------------|\
B|--------------------| \
G|5-5-6-6-7-----------|  >
D|5-5-6-6-7--4-5-4-5-7|  > 4x 
A|3-3-4-4-5--4-5-4-5-7| /
E|-----------2-3-2-3-5|/

e|--------------------|\
B|--------------------| \
G|5-5-6-6-7-----------|  >
D|5-5-6-6-7-----------|  > 4x
A|3-3-4-4-5-----------| /
E|--------------------|/


e|--------------------|\
B|--------------------| \
G|5-5-6-6-7-----------|  >
D|5-5-6-6-7--4-5-4-5-7|  > 8x 
A|3-3-4-4-5--4-5-4-5-7| /
E|-----------2-3-2-3-5|/

e|--------------------|\
B|--------------------| \
G|5-5-6-6-7-----------|  >
D|5-5-6-6-7-----------|  > 3x
A|3-3-4-4-5-----------| /
E|--------------------|/


e|------------------------|
B|------------------------| 
G|5-5-6-6-7--9\8\7\6\5\4\3|  
D|5-5-6-6-7--9\8\7\6\5\4\3|  
A|3-3-4-4-5--7\6\5\4\3\2\1| 
E|------------------------|

e|--------------------|\
B|--------------------| \
G|5-5-6-6-7-----------|  >
D|5-5-6-6-7--4-5-4-5-7|  > 4x 
A|3-3-4-4-5--4-5-4-5-7| /
E|-----------2-3-2-3-5|/

e|--------------------|
B|--------------------| 
G|5-5-6-6-7-----------|  
D|5-5-6-6-7-----------| 
A|3-3-4-4-5-----------| 
E|--------------------|

| /  slide up
| \  slide down
| h  hammer-on
| p  pull-off
| ~  vibrato
| +  harmonic
| x  Mute note
=========================================================================
Tap to rate this tab
# A B C D E F G H I J K L M N O P Q R S T U V W X Y Z