Song name
# A B C D E F G H I J K L M N O P Q R S T U V W X Y Z

Primus - The Heckler Rithim Geetar tab

standard E

pluck low e string than strum chord once
mute chord after you play it

mild dist

Dmin

e---5x---5x---5x---5x-----5x---5x---5---5------------------------------------|
b---6x---6x---6x---6x-----5x---5x---5x--5------------------------------------|
g---7x---7x---7x---7x-----6x---6x---6x--6------------------------------------|
d---7x---7x---7x---7x-----6x---6x---6x--6------------------------------------|
a---5x---5x---5x---5x-----5x---5x---5x--5------------------------------------|
e--5----5----5----5------5----5----5-----------------------------------------|


chorus solo crap

---------------------------------|
666----8-8------666--10--10------|
555----7---7----555--9------9----|
333----5-----5--333--7--------7--|
---------------------------------|
---------------------------------|

----------------------------------------------------------------|
666---8-8-------666---------------------------------------------|
555---7---7-----555--IT'S JUST A MATTER OF OPINION--------------|
333---5-----5---333---------------------------------------------|
----------------------------------------------------------------|
----------------------------------------------------------------|




listen to get the rythem down

xoxo
-ROO
Tap to rate this tab
# A B C D E F G H I J K L M N O P Q R S T U V W X Y Z