Song name
# A B C D E F G H I J K L M N O P Q R S T U V W X Y Z

Primus - Mama Didnt Raise No Fool tab

Mama Didn't Raise No Fool - Primus

I couldn't find a tab on this song that was accurate so I figgered I would attempt it...

Tuning - Drop B ebgdaB


Intro/Main Riff
|------------------------------------------|
|------------------------------------------|
|--------------------x---------------------|
|--------------------x---------------------|
|------------------------------------------|
|-0--0-0-3b(3.5)p0---x--0-3b(3.5)p0--------|

Interlude/Solo Riff:
|-------------7---------7--------------------|
|--------------------------------------------|
|-------8-----------8-------8----------------|
|-9-9-9---9-9---9-9---9---9------------------|
|--------------------------------------------|
|--------------------------------------------|
 PM------------------------------------------|

|-------------7---------7---10---------------|
|--------------------------------------------|
|-------8-----------8------------------------|
|-9-9-9---9-9---9-9---9---9------------------|
|--------------------------------------------|
|--------------------------------------------|
 PM------------------------------------------|

Interlude 2:
|------------------------------------------|
|------------------------------------------|
|---x-x---------x-x-x----------------------|
|---x-x---------x-x-x----------------------|
|---x-x---------x-x-x----------------------|
|-0-x-x--0--0-0-x-x-x-3-4------------------|

myspace.com/solustheband
Tap to rate this tab
 
# A B C D E F G H I J K L M N O P Q R S T U V W X Y Z