Song name
# A B C D E F G H I J K L M N O P Q R S T U V W X Y Z

Primus - The Air Is Getting Slippery tab

Help us improve GuitareTab! Take a short survey!
intro & main riff

G-------------------------------------------------------------------|
D----7--6--5--4---0--1---4---------0---1---4-------0---1---4--------|
A--------------------------------1-----------1-----------------1----|
E-------------------------------------------------------------------|

other part:

G:----------------------|
D:-8-4/6-4-3-4-3/-------|
A:----------------------|
E:----------------------|

or...

G --------------------------|
D --8-----------------------|
A -----9/11-9-8-9-8/--------|
E --------------------------|

do some variations on that line. i like to play it like

G --------------------------------------|
D --8-8---------------------------------|
A -------9-9/11-9-9-8-8-999-8/----------|
E --------------------------------------|
Related for The Air Is Getting Slippery tab