Guitaretab - guitar tabs
Song name
# A B C D E F G H I J K L M N O P Q R S T U V W X Y Z

Primus - Mrs Blaileen tab

-------------------------------------------------------------------------------
MRS. BLAILEEN - Primus
-------------------------------------------------------------------------------
Tabbed by: larry jones
Email: mochobotica@cox.net

Tuning: Standard

Keep in mind that this and every Primus song sounds like crap without a bass playing.

Verse:
e|-----------------------------------------------------------------------|
B|-----------------------------------------------------------------------|
G|-----------------------------------------------------------------------|
D|---12--12--12--12---12--12--12--12---12--12--12--12---12--12--12--12---|
A|---12--12--12--12---12--12--12--12---12--12--12--12---12--12--12--12---|
E|---10--10--10--10---10--10--10--10---10--10--10--10---10--10--10--10---|

e|-----------------------------------------------------------------------|
B|-----------------------------------------------------------------------|
G|-----------------------------------------------------------------------|
D|---13--13--13--13---13--13--13--13---13--13--13--13---13--13--13--13---|
A|---13--13--13--13---13--13--13--13---13--13--13--13---13--13--13--13---|
E|---11--11--11--11---11--11--11--11---11--11--11--11---11--11--11--11---|

X4

e|----------------------------------------|
B|----------------------------------------|
G|----------------------------------------|
D|---12--12--12--12---12--12--12--12------|
A|---12--12--12--12---12--12--12--12------|
E|---10--10--10--10---10--10--10--10------|

Riff A:
e|-------------------------------------------------------------------|
B|-------------------------------------------------------------------|
G|------------------------------14-15--------------------------------|
D|--12-14----14-15-12--12-14---------12--12-14----14-15-12--12-14----|
A|-------------------------------------------------------------------|
E|-------------------------------------------------------------------|

Verse

Riff B:
e|-------------------------------------------------------------------|
B|-------------------------------------------------------------------|
G|------------------------------14-15--------------------------------|
D|--12-14----14-15-12--12-14---------12--12-14----14-15-12--12-14----|
A|-------------------------------------------------------------------|
E|-------------------------------------------------------------------|

e|-------------------------------------------------------------------|
B|-------------------------------------------------------------------|
G|--10--9--8--7---10--9--8--7---11--10--9--8---11--10--9--8----------|
D|--10--9--8--7---10--9--8--7---11--10--9--8---11--10--9--8----------|
A|--8---7--6--5---8---7--6--5---10--9---8--7---10--9---8--7----------|
E|-------------------------------------------------------------------|
[ Tab from: http://www.guitaretab.com/p/primus/78029.html ]
Solo
e|-----------------------------------------------------------------------|
B|-----------------------------------------------------------------------|
G|--------------------------------------------------17-------------------|
D|--12--14---------------/17----------14h16p17---------16p14-------------|
A|--------------8/2-------------14h16------------------------16p14p12----|
E|--------------6/0------------------------------------------------------|

Then Larry goes into the ridiculous part of the solo that I didnít get to tab. (Iíll tab 
next time- I PROMISE!!!)

Verse:
e|---------------------------------------------------------------|
B|---------------------------------------------------------------|
G|---x--x--x--x---x--x--x--x---x--x--x--x---x--x--x--x-----------|
D|---x--x--x--x---x--x--x--x---x--x--x--x---x--x--x--x-----------|
A|---x--x--x--x---x--x--x--x---x--x--x--x---x--x--x--x-----------|
E|---------------------------------------------------------------|

X4

e|-----------------------------------------------------------------------|
B|-----------------------------------------------------------------------|
G|-----------------------------------------------------------------------|
D|---12--12--12--12---12--12--12--12---12--12--12--12---12--12--12--12---|
A|---12--12--12--12---12--12--12--12---12--12--12--12---12--12--12--12---|
E|---10--10--10--10---10--10--10--10---10--10--10--10---10--10--10--10---|

e|-----------------------------------------------------------------------|
B|-----------------------------------------------------------------------|
G|-----------------------------------------------------------------------|
D|---13--13--13--13---13--13--13--13---13--13--13--13---13--13--13--13---|
A|---13--13--13--13---13--13--13--13---13--13--13--13---13--13--13--13---|
E|---11--11--11--11---11--11--11--11---11--11--11--11---11--11--11--11---|

X2

Riff B:
e|-------------------------------------------------------------------|
B|-------------------------------------------------------------------|
G|------------------------------14-15--------------------------------|
D|--12-14----14-15-12--12-14---------12--12-14----14-15-12--12-14----|
A|-------------------------------------------------------------------|
E|-------------------------------------------------------------------|

e|-------------------------------------------------------------------|
B|-------------------------------------------------------------------|
G|--10--9--8--7---10--9--8--7---11--10--9--8---11--10--9--8----------|
D|--10--9--8--7---10--9--8--7---11--10--9--8---11--10--9--8----12-14-|
A|--8---7--6--5---8---7--6--5---10--9---8--7---10--9---8--7----------|
E|-------------------------------------------------------------------|

| /  slide
| h  hammer-on
| p  pull-off
| x  Mute note
===============================================================================
This is my first ever tab, but I really donít give a damn if you donít like it. Give it 
if you feel like it. Hey, whatever man.
Related for Mrs Blaileen tab