Guitaretab - guitar tabs
Song name
# A B C D E F G H I J K L M N O P Q R S T U V W X Y Z

Primus - Intruder tab

Artist: Primus
Album: Miscellaneous Debris
Song: Intruder

This is a great song, originally done by Peter Gabriel.
Give it a listen some time, he's one of Les Claypool's
biggest influences. Play this with the song to get the
hang of it. There are notes when the volume increases.
I'll mark these with:   v>


h =hammer on
b =bend string up


Repeat these riffs as necessary.
Intro/Chorus:
e------------------------------------------------------------|
B---5--5-----------------------------------------------------|
G---3--3-----------------------------------------------------|
D------------------------------------------------------------|
A---------4-7-4----------------------------------------------|
E------------------------------------------------------------|


e--11--10-----9-----11--10-----9-----------------------------|
B---------11----11---------11-----11-------------------------|
G------------------------------------------------------------|
D------------------------------------------------------------|
A------------------------------------------------------------|
E------------------------------------------------------------|

[ Tab from: http://www.guitaretab.com/p/primus/82067.html ]
e---6-6-6-6--8-8-8-8--11-------------------------------------|
B---7-7-7-7--9-9-9-9-----------------------------------------|
G------------------------------------------------------------|
D------------------------------------------------------------|
A------------------------------------------------------------|
E------------------------------------------------------------|


Repeat this riff as necessary.
Verse:
   v>
e--13----10h11-----------------------------------------------|
B--------------11--------------------------------------------|
G------------------------------------------------------------|
D------------------------------------------------------------|
A------------------------------------------------------------|
E------------------------------------------------------------|


Play the intro/chorus riffs.
The solo can be reproduced by scraping your pick against the
wound strings above the pick-ups. If you have a delay or an
echo pedal, it will sound much better.
After the solo, come back in with the verse.
Play the intro/chorus riffs.
Then, end the song with this:

e--18--12--13--12--13--12--13--12--13--12--13--12--13--12b---|
B--18--11--11--11--11--11--11--11--11--11--11--11--11--11b---|
G------------------------------------------------------------|
D------------------------------------------------------------|
A------------------------------------------------------------|
E------------------------------------------------------------|
Related for Intruder tab
Advertisement will be closed in 10 seconds