Song name
# A B C D E F G H I J K L M N O P Q R S T U V W X Y Z

Primus - Chastising Of Renegade tab

Primus
Chastising of Renegade
Brown Album

----------------------------------------------------------|
---4--4--4--4-5h-4--4--4--4-3--4--4--4--4-5h-4--4--4-7-5--|
---4--4--4--4-5h-4--4--4--4-3--4--4--4--4-5h-4--4--4-7-5--|
----------------------------------------------------------|
----------------------------------------------------------|
----------------------------------------------------------|

----------------------------------------------------------|
---4--4--4--4-5h-4--4--4--4-3--4--4--4--4-5h-4--4--4-7-5--|
---4--4--4--4-5h-4--4--4--4-3--4--4--4--4-5h-4--4--4-7-5--|
----------------------------------------------------------|
----------------------------------------------------------|
----------------------------------------------------------|
Tap to rate this tab
 
# A B C D E F G H I J K L M N O P Q R S T U V W X Y Z