Song name
# A B C D E F G H I J K L M N O P Q R S T U V W X Y Z

Primus - The Pressman tab

The Pressman by Primus

Chorus:
e|--------------------------------------------------------|
B|--------------------------------------------------------|
G|--12--12--12/15--15-15-15-13-12--12-12/15-/18-----------|
D|--------------------------------------------------------|
A|--10--10--10/13--13-13-13-11-10--10-10/13-/16--16/10----|
E|--------------------------------------------------------|

e|-------------------------------------------------------------------------|
B|-------------------------------------------------------------------------|
G|---------------12-11--------------12-11--------------12-11---------------|
D|--12--12-13-12-10-9--12--12-13-12-10-9--12--12-13-12-10-9--12--12-13-12--|
A|--10--10-11-10-10-9--10--10-11-10-10-9--10--10-11-10-10-9--10--10-11-10--|
E|--10--10-11-10-------10--10-11-10-------10--10-11-10-------10--10-11-10--|

1st solo:
e|--------------------------------------|
B|--------------------------------------|
G|--------------------------0~----------|
D|----------------------------0~--------|
A|-------------3~---3~-------------6p5--|
E|--3----3-3-4~---4~---3-3--------------|

Chorus:
e|--------------------------------------------------------|
B|--------------------------------------------------------|
G|--12--12--12/15--15-15-15-13-12--12-12/15-/18-----------|
D|--------------------------------------------------------|
A|--10--10--10/13--13-13-13-11-10--10-10/13-/16--16/10----|
E|--------------------------------------------------------|

e|-------------------------------------------------------------------------|
B|-------------------------------------------------------------------------|
G|---------------12-11--------------12-11--------------12-11---------------|
D|--12--12-13-12-10-9--12--12-13-12-10-9--12--12-13-12-10-9--12--12-13-12--|
A|--10--10-11-10-10-9--10--10-11-10-10-9--10--10-11-10-10-9--10--10-11-10--|
E|--10--10-11-10-------10--10-11-10-------10--10-11-10-------10--10-11-10--|

2nd solo:
e|-------10b--10---------------------------|
B|--8------------8---7-5---5h6p5--3p2--/3--|
G|-----------------------------------------|
D|-----------------------------------------|
A|-----------------------------------------|
E|-----------------------------------------|

wah & delay
e|----------------------------------------------------------------------|
B|----------------------------------------------------------------------|
G|------------------------------------------------------------0---------|
D|--------------------------5b-5-5-------------------0------------------|
A|-------------------5b-5-4-3-----------5-----------------0-0-0---------|
E|---------------------------------3b------------------3----------------|

Chorus:
e|--------------------------------------------------------|
B|--------------------------------------------------------|
G|--12--12--12/15--15-15-15-13-12--12-12/15-/18-----------|
D|--------------------------------------------------------|
A|--10--10--10/13--13-13-13-11-10--10-10/13-/16--16/10----|
E|--------------------------------------------------------|

e|-------------------------------------------------------------------------|
B|-------------------------------------------------------------------------|
G|---------------12-11--------------12-11--------------12-11---------------|
D|--12--12-13-12-10-9--12--12-13-12-10-9--12--12-13-12-10-9--12--12-13-12--|
A|--10--10-11-10-10-9--10--10-11-10-10-9--10--10-11-10-10-9--10--10-11-10--|
E|--10--10-11-10-------10--10-11-10-------10--10-11-10-------10--10-11-10--|

3rd solo:
e|---------------------------------------|
B|---------------------------------------|
G|---------------------------------------|
D|---------------------------------------|
A|---5---/5h6h7h8-8-7-7-7b-7-5h7p5-4-----|
E|---3-----------------------------------|

e|-----------------------------------------------15--8-7-4h7p4-3----------------------|
B|------------------------9-9-9p8-11h12-12-15b15~----------------4-4h5h6--------------|
G|--/10-7-10-7h10p7-6/7/9~------------------------------------------------6-----------|
D|--------------------------------------------------------------------------7---------|
A|-----------------------------------------------------------------------------5------|
E|--------------------------------------------------------------------------------3---|

Chorus:
e|--------------------------------------------------------|
B|--------------------------------------------------------|
G|--12--12--12/15--15-15-15-13-12--12-12/15-/18-----------|
D|--------------------------------------------------------|
A|--10--10--10/13--13-13-13-11-10--10-10/13-/16--16/10----|
E|--------------------------------------------------------|

e|-------------------------------------------------------------------------|
B|-------------------------------------------------------------------------|
G|---------------12-11--------------12-11--------------12-11---------------|
D|--12--12-13-12-10-9--12--12-13-12-10-9--12--12-13-12-10-9--12--12-13-12--|
A|--10--10-11-10-10-9--10--10-11-10-10-9--10--10-11-10-10-9--10--10-11-10--|
E|--10--10-11-10-------10--10-11-10-------10--10-11-10-------10--10-11-10--|
Tap to rate this tab
 
# A B C D E F G H I J K L M N O P Q R S T U V W X Y Z