Song name
# A B C D E F G H I J K L M N O P Q R S T U V W X Y Z

Primus - Jellikit tab

Artist: Primus
Song: Jellikit
Album: Suck On This
Tuning: Standard
Tabbed by: Jeremy Hill
Notes: 
 /\/\/ - Whammy
<#> - harmonic
/ - slide
t - tremolo pick
b - bend

e|---------------------------------------------------------------------|
B|---11--11\/--11-14-17----Slide up and down the G and B---------------|
G|-------------------------strings for the harmonics--------0\/\/\/\/--|
D|---8---8-\/--8--11-14----between the 3rd and 9th frets---------------|
A|---------------------------------------------------------------------|
E|---------------------------------------------------------------------|

e|-------------------------------|
B|--11---------------------------|
G|----------------------------7--| x3
D|--8------8-8-8-8-8-8-...--6-7--|
A|--------------------------6-5--|
E|-------PM.-.-.-.-.-.------4----|

e|----------------------|
B|----------------------|
G|---7--6~~-------------|
D|-6-7--6~~-------------|
A|-6-5--4~~-------------|
E|-4--------------------|

e|-------------------------------|
B|--11---------------------------|
G|----------------------------7--| x3
D|--8------8-8-8-8-8-8-...--6-7--|
A|--------------------------6-5--|
E|-------PM.-.-.-.-.-.------4----|

e|---------18-18-17-17-16-16-15-15--/15\--/16\--/17--18t-19t-20t---|
B|-----------------------------------------------------------------|
G|--12/15--15-15-14-14-13-13-12-12--/12\--/13\--/14--15t-16t-17t---|
D|-----------------------------------------------------------------|
A|-----------------------------------------------------------------|
E|-----------------------------------------------------------------|

e|---20b(22)------15t-16t-17t\\\----------------|
B|------------18--------------------------------|
G|----------------12t-13t-14t\\\-----7-------7--|
D|---------------------------------6-7--8t-6-7--|
A|---------------------------------6-5-----6-5--|
E|---------------------------------4-------4----|

e|-------------------------------|
B|--11---------------------------|
G|----------------------------7--| 
D|--8------8-8-8-8-8-8-...--6-7--|
A|--------------------------6-5--|
E|-------PM.-.-.-.-.-.------4----|

e|----------------------|
B|----------------------|
G|---7--6~~-------------|
D|-6-7--6~~-------------|
A|-6-5--4~~-------------|
E|-4--------------------|


e|-----------15b---------15b---------15b---------15b----|
B|-----------14b---------14b---------14b---------14b----|
G|------------------------------------------------------| X4
D|--8-8-8-8------8-8-8-8-----8-8-8-8-----8-8-8-8--------|
A|------------------------------------------------------|
E|------------------------------------------------------|

e|---------------------------|
B|---------------------------|
G|--8-7-6--4--6-5-4----------| x4
D|--8-7-6--4--6-5-4----------|
A|--6-5-4--2--4-3-2----------|
E|--------------------3-3-0--|


e|---------------------------|
B|---------------------------|
G|--10-9-8--5--7-6-5---------| x4
D|--10-9-8--5--7-6-5---------|
A|--8--7-6--3--5-4-3---------|
E|--------------------3-3-0--|

e|--8/18\8/18\8/18\8/18\8/18\8/18~~----|
B|-------------------------------------|
G|--5/15\5/15\5/15\5/15\5/15\5/15~~----|
D|-------------------------------------|
A|-------------------------------------|
E|-------------------------------------|

e|-------------------------------|
B|--11---------------------------|
G|----------------------------7--| x2
D|--8------8-8-8-8-8-8-...--6-7--|
A|--------------------------6-5--|
E|-------PM.-.-.-.-.-.------4----|

e|--------------------------|
B|--------------------------|
G|----7-------7-------------| x5
D|--6-7--8t-6-7--(8~--8\\)--|  ()-play last time
A|--6-5-----6-5--(8~--8\\)--|
E|--4-------4----(6~--6\\)--|
Tap to rate this tab
# A B C D E F G H I J K L M N O P Q R S T U V W X Y Z