Song name
# A B C D E F G H I J K L M N O P Q R S T U V W X Y Z

Primus - Over The Electric Grapeine tab

----------------------------------------------------------------------------
	            Over the Electric Grapevine-Primus
----------------------------------------------------------------------------
Tabbed by: frizzle fry

Tuning: standard

e|----0-----1------3------0------0----1-----3----5/-slide-up---------------|
B|-------------------------------------------------------------------------|
G|--2----2-----2------2------2-----2-----2-----2---------------------------|
D|-------------------------------------------------------------------------|
A|-------------------------------------------------------------------------|
E|-------------------------------------------------------------------------|

e|------12------13------15-----12-------------12-------13------15-------17-|
B|-------------------------------------------------------------------------|
G|--14------14------14-----14------------14-------14------14------14-------|
D|-------------------------------------------------------------------------|
A|-------------------------------------------------------------------------|
E|-------------------------------------------------------------------------|

Verse Riff: (it goes with the vocals)

e|-------------------------------------------------------------------------|
B|-------------------------------------------------------------------------|
G|-----6------6--6------6--6---6--9---6--6---------------------------------|
D|--------7---------7-----------------------7------------------------------|
A|-------------------------------------------------------------------------|
E|-------------------------------------------------------------------------|

thats all i got later

| /  slide up
| \  slide down
| h  hammer-on
| p  pull-off
| ~  vibrato
| +  harmonic
| x  Mute note
============================================================================
Tap to rate this tab
# A B C D E F G H I J K L M N O P Q R S T U V W X Y Z