Song name
# A B C D E F G H I J K L M N O P Q R S T U V W X Y Z

Primus - Golden Boy tab

Artist - Primus
Song - Golden Boy
Tabbed By - Josh Bellian

Guitar Tabs by: Primus
Tabs for song: Golden Boy

Primus - Goldenboy
Standard Tuning


Start
e-----------------|
B-----------------|
G-----------------|
D-8-8-8-8-8-8-8-8-|
A-7-7-7-7-7-7-7-7-|
E-8-8-8-8-8-8-8-8-|

Main Riff
e-------------|-----------------|---------------|--------------|
B-------------|-----------------|---------------|--------------|
G-------------|------------7-7--|---------------|--------------|
D-------6h7---|-----6h7--------9|--------6h7----|----6h7-----9-|
A-9/-6h7---5-5|--6h7----6h7-----|-----6h7----5-5|-6h7----6h7---|
E-7/----------|-----------------|-7-7-----------|--------------|

Verse
e--------------|-----------------|---------------|--------------|
B--------------|-----------------|---------------|--------------|
G--------------|------------5-5--|---------------|--------------|
D-------4h5----|-----4h5--------7|--------4h5----|----4h5-----7-|
A-7/-4h5----3-3|--4h5----4h5-----|-----4h5----3-3|-4h5----4h5---|
E-5/-----------|-----------------|-5-5-----------|--------------|

Solo isn't complete but im still working it out so ill update the tab latter.
                                                                                         
                                                              1:50^
e---------------------------------------------------------|------------------|
B---------------------17~----------------------17~--17----|------------------|
G-------------------16~--16/14-14p13~~13~~14-16~--14--13--|-13 13-13/ 9/13---|
D-14-15^-14----14-16~--------------14~-~14--------------14|-14-14-14/10/10---|
A-----------14--------------------------------------------|------------------|
E---------------------------------------------------------|------------------|
                                                 Pm--------------------------|

 1:55
e----------12-12p0-0-12/-|
B-5-0-0-11---------------|
G------------------------|
D------------------------|
A------------------------|
E------------------------|
Tap to rate this tab
# A B C D E F G H I J K L M N O P Q R S T U V W X Y Z