Song name
# A B C D E F G H I J K L M N O P Q R S T U V W X Y Z

Primus - Mary The Ice Cube tab

Artist: Primus
Song: Mary the Ice Cube
Album: Animals Should Not Try to Act Like People (2003)
Tuning: E-A-D-G-B-e
Tabbed by: Jeremy Hill
Notes: 

  t - Tremelo Pick
  b - Bend
  pb - pre bend

Intro/Verse 1:
e|---------------------------------------17--------------11pb--------|
B|----------------------------9b-------------------------------------|
G|---------6b------6pb-----------------------------------------------|
D|--6b-------------------------------------------6b------------------|
A|-------------------------------------------------------------------|
E|-------------------------------------------------------------------|


Verse 2:
e|---------------------|
B|---------------------|
G|---------6b-----10pb-|
D|--5b-----------------|
A|---------------------|
E|---------------------|


Chorus:
e|--------------------------------------------------------|
B|--------------------------------------------------------|
G|--------------------------------------------------------|
D|--7~---8--13---7~---8--13---7~---8--13---7~--8--17--14--|
A|--7~---8--13---7~---8--13---7~---8--13---7~--8--17--14--|
E|--5~---6--11---5~---6--11---5~---6--11---5~--6--15--12--|

Quietly
e|--------------------------------|
B|--------------------------------|
G|--------------7~----------------|
D|--7~------------------------7~--|
A|--------------------------------|
E|--------------------------------|


e|--------------------------------------------------------|
B|--------------------------------------------------------|
G|--------------------------------------------------------|
D|--5~---8--13---5~---8--13---5~---8--13---5~--8--17--14--|
A|--5~---8--13---5~---8--13---5~---8--13---5~--8--17--14--|
E|--3~---6--11---3~---6--11---3~---6--11---3~--6--15--12--|


e|----------------------------------------------------------------------------------------------|
B|----------------------------------------------------------------------------------------------|
G|--14~---14--17-17--20-20---14~---14--17-17--20-20---14~---14--17-17--20-20---14~--14--21--20--|
D|--14~---14--17-17--20-20---14~---14--17-17--20-20---14~---14--17-17--20-20---14~--14--21--20--|
A|--12~---12--15-15--18-18---12~---12--15-15--18-18---12~---12--15-15--18-18---12~--12--19--18--|
E|----------------------------------------------------------------------------------------------|

e|-------------------------------------------------------------------------------5--|
B|------------------------4-5----------------4-5----------------4--------------4----|
G|--8~-----------5~-----5-------------5~---5-----------5~-----5---------5~---5------|
D|--10~-----------------------------------------------------------------------------|
A|-----------0-0-----------------0-0---------------0-0--------------0-0-------------|
E|----------------------------------------------------------------------------------|

e|--------------------------------------------------------------------------------------------------------|
B|--------------------------------------------------------------------------------------------------------|
G|---------6----5-12--12---12-------6---6-6---6---9----9----12----12----6-----6---6---9----9----12-12-12--|
D|--7-7--7---7----------13----13--7---7-----7---7---10---10----13----13---7-7---7---7---10---10-----------|
A|--------------------------------------------------------------------------------------------------------|
E|--------------------------------------------------------------------------------------------------------|

e|--------------------------------|
B|-----5-----5--8--8-8--11-11-11--|
G|-------6-6----------------------|
D|--7-----------------------------|
A|--------------------------------|
E|--------------------------------|

e|---------------------------------------------------------------------------------|
B|----------------------------------------------------10~---13--16---10~---17--16--|
G|--14~---14--17-17--20-20---14~---14--17-17--20-20---9~----12--15---9~----16--15--|
D|--14~---14--17-17--20-20---14~---14--17-17--20-20--------------------------------|
A|--12~---12--15-15--18-18---12~---12--15-15--18-18--------------------------------|
E|---------------------------------------------------------------------------------|

Outro:
e|---------------------------------------------------------------|
B|--10~---13--16---10~---17--16----10~---13--16---10~---17--16---|
G|--9~----12--15---9~----16--15----9~----12--15---9~----16--15---|
D|---------------------------------------------------------------|
A|---------------------------------------------------------------|
E|---------------------------------------------------------------|

e|--9-----9---12--12--15--15----------------------------------------------------------|
B|--10----10--13--13--16--16---11-10t--13t-12t-11t-10t--13t-12t-11t-10t--13t-12t-11t--|
G|------------------------------------------------------------------------------------|
D|------------------------------------------------------------------------------------|
A|------------------------------------------------------------------------------------|
E|------------------------------------------------------------------------------------|

e|----------------------------------------------------------|
B|----------------------------------------------------------|
G|-------------------/7---7---------7--10----------------7--|
D|--7\-----7--7\-----/7---7--7\-----7--10---7------7--7--7--|
A|--7\-----7--7\-----/5---5--7\-----5--8----7------7--7--5--|
E|--5\-----5--5\-------------5\-------------5------5--5-----|

e|------------------------------------------------------------------------------------------|
B|-------------------------------------------------10-10--------8---------------------------|
G|--10-10-10-10-8-8-8-8-10-10-10-10-8-8-8-8------8-----------6----6-0-6--7-7-7-7--5-3-2-----|
D|--10-10-10-10-8-8-8-8-10-10-10-10-8-8-8-8----10-----------8---------------------------3---|
A|--8--8--8--8--6-6-6-6-8--8--8--8--6-6-6-6---8------------6--------------------------------|
E|------------------------------------------------------------------------------------------|
Tap to rate this tab
# A B C D E F G H I J K L M N O P Q R S T U V W X Y Z