Song name
# A B C D E F G H I J K L M N O P Q R S T U V W X Y Z

Prince Royce - Raspberry Beret tab

Song: Raspberry Beret
Artist: Prince Royce
Tuning: Standard
Capo: No
-This is my first tab, so please feel free to complain, point out mistakes, compliment! 
I don't care about hateful comments, but please keep it to a minimum, not serious 
hateful comments. Thank you!

INTRO:
1..2...1, 2, 3, 4

E------------------------------------------|
A------------------------------------------|
D------------------------------------------|
G--------4---------------------------------|
B----2-2---2-3-5-2-0-2---------------------|
E------------------------------------------|

E------------------------------------------|
A------------------------------------------|
D------------------------------------------|
G----4-4-4-4-4/2---------------------------|
B----------------0-2-----------------------|
E------------------------------------------|

Repeat those for the beginning of the song.

CHORUS:

E------------------------------------------|
A------------------------------------------|
D------------------------------------------|
G-(0)(2)------------2----------------------|
B--------(0)2-0-2-0------------------------|
E------------------------------------------|

E------------------------------------------|
A------------------------------------------|
D------------------------------------------|
G--0-4-4-4-4-2-----2-2---------------------|
B--------------0-2-------------------------|
E------------------------------------------|

Repeat those for chorus.

ENJOY! :D
Tap to rate this tab
# A B C D E F G H I J K L M N O P Q R S T U V W X Y Z