Song name
# A B C D E F G H I J K L M N O P Q R S T U V W X Y Z

Prince - America tab

Song:	AMERICA
Artist:	PRINCE
Album:	AROUND THE WORLD IN A DAY
Tab:	LUNAR PIPER

INTRO/CHORUS
|---|---------------|---------------|---------------|
|---|---------------|---------------|---------------|
|---|---------------|---------------|---------------|
|---|---------------|---------------|-----0---1p0---|
|-3-|-3-----------5-|-5-----------3-|-3-----------3-|
|---|-------3-3-----|-------3-3-----|-------------3-|
  1st Time        2nd Time
|---------------|---------------|
|---------------|---------------|
|---------------|---------------|
|-3-------------|---------------|
|---------------|-3-------------|
|---------------|---------------|

VERSE
|---------------|--------------|
|---------------|--------------|
|---------------|-----3-0------|
|---------3---4-|-5---0-0------|
|-3---6---------|--------------|
|---------------|--------------|

SOLO
|-------------------------|-------------------------|
|-1-------------------1-1-|-1-------------------1-1-|
|---3-3-3-2-2-2-0-0-0-----|---3-3-3-2-2-2-0-0-0-----|
|-------------------------|-------------------------|
|-------------------------|-------------------------|
|-------------------------|-------------------------|
                            1st Time         2nd Time
|-------------------------|----------------|-----------|
|-1-----------------------|------------1-1-|-----------|
|---3-3-3-2-2-2-0-0-0-----|-0---0---0------|-0---0-2-0-|
|----------------------3--|---3---3--------|---3-------|
|-------------------------|----------------|-----------|
|-------------------------|----------------|-----------|
Tap to rate this tab
 
# A B C D E F G H I J K L M N O P Q R S T U V W X Y Z