Song name
# A B C D E F G H I J K L M N O P Q R S T U V W X Y Z

Prince - Fury tab

Highlighted       Show chord diagrams
-------------------------------------------------------------------------------
			     SONG NAME - Fury
-------------------------------------------------------------------------------
Tabbed by:Chanell (AxelGirl89)
Email:bustaryme2000@yahoo.com 
This song is from Prince's new album: 3121, and was the first song performed on
the February 4th SNL where Prince was the musical guest. This is my first tab so
kinda go easy on me...lol 
First you are gonna need the chords: Dmin7,Dmaj7,Cmaj7,

Tuning:Standard 
     Dmin7    Dmaj7   Cmaj7   Dmin7
e|----10--------10------8------10---------------------------------------------------|
B|----11--------10------8------11---------------------------------------------------|
G|----10--------10------8------10---------------------------------------------------|
D|----12--------10------8------12---------------------------------------------------|
A|----10--------12------10-----10---------------------------------------------------|
E|----10--------10------8------10---------------------------------------------------|
You basically go through the chords and add in the strums as you hear the song, and
then you've got it. Oh yea and your gonna need some six inch heels and then your
playin like the purple one.

I'll post the second part later. ;)

Tap to rate this tab
 
# A B C D E F G H I J K L M N O P Q R S T U V W X Y Z