Song name
# A B C D E F G H I J K L M N O P Q R S T U V W X Y Z

Prince - When Doves Cry tab

--- --- --- --- --- --- --- --- --- --- --- --- --- --- --- --- --- --- ---
--- --- --- --- --- --- --- --- --- --- --- --- --- --- --- --- (7- -8- 7)
-4- -7- -5- -(4 -5-4)--- (2- -4- -2- 0)--- --- --- --- --- --- --- ---
--- --- --- --- --- --- --- --- --- --- --- --(2- --0) --- --- --- --- ---
--- --- --- --- --- --- --- --- --- --- --- --- --- --- -2- --- --- --- ---
--- --- --- --- --- --- --- --- --- --- --- --- --- --- --- --- --- --- ---


--- --- --- --- --- --- --- --- --- --- --- --- --- --- --- --- --- --- --- ---
-0- -0- -0- -(7 -5-0) -(7 -5-0) (7 -5-0) -0- -0 -3- -0- -0- (5 7) -0- -0-
--- --- --- --- --- --- --- --- --- --- --- --- --- --- --- --- --- --- --- ---
--- --- --- --- --- --- --- --- --- --- --- --- --- --- --- --- --- --- --- ---
--- --- --- --- --- --- --- --- --- --- --- --- --- --- --- --- --- --- --- ---
--- --- --- --- --- --- --- --- --- --- --- --- --- --- --- --- --- --- --- ---


Now, using tremolo picking (a fast and constant up and down picking motion, this is NOT 
picking, basically just move the pick up and down as FAST as you can) the next part is simply:

--- --- ----|
-(7 -5-0----|
--- --- ----|
--- --- ----|
--- --- ----|
--- --- ----|

Play this 6 times and end with:

--- --- --- ----|
--- --- --- ----|
(7- -5- 0) 4----|
--- --- --- ----|
--- --- --- ----|
--- --- --- ----|

transcribed by ec
Tap to rate this tab
 
# A B C D E F G H I J K L M N O P Q R S T U V W X Y Z