Guitaretab - guitar tabs
Song name
# A B C D E F G H I J K L M N O P Q R S T U V W X Y Z
Home / P / Prince / Lolita tab

Prince - Lolita tab

Lolita
By Prince
from “3121” (2006)

KB riff 1 (transcribed for guitar)
     A          G           D
--------------------------------------|
----5----5--3-3--3---3--3-3-----------|
----6----6--4-4--2---2--4-4-----------|
----7----7--5-5--4---4--5-5-----------|
--------------------------------------|
--------------------------------------|

KB riff 2 (transcribed for guitar)
     C         Bb   Am
--------------------------------------|
----8----8--6-6--5---5--6-6-----------|
----9----9--7-7--5---5--7-7-----------|
---10---10-8-8--7---7--8-8------------|
--------------------------------------|
--------------------------------------|

Verse 1
Riff 1
You’re a VIP at least to me
Come here and show me some ID
Eye know U're fine from head 2 pumps
If U were mine we'd bump bump bump
Riff 2
U're much 2 young 2 peep my stash
U're tryin' 2 write checks Ur body can't cash

Funky guitar lick
e---------------------|
b----------10-10--10--|
g----------12-12--12--|
d---10/11-------------|
a---11/12-------------|
e---------------------|

U can’t hang with this, girl

Chorus
   D6/B (xx9777)
Lolita you’re sweetah

E9sus4(addD) (x77777)
	        But you’ll never make a cheater outta me
[ Tab from: http://www.guitaretab.com/p/prince/152470.html ]
Verse 2 (same as verse 1)
Cool 2gether, yes, eye must admit
Long time ago, we'd be the shh... uh oh
Like Frank and Ava, we'd paint the town
Just on the floor, gettin' way down
Dom Perignon and caviar
The finest clothes and fancy cars

U know, one of them '56 pink caddies, baby!

Keyboard solo riff
-----12-------14p12-15--14--12---------------------------------------|
---------------------------------------15--13h14---------------------|
---------------------------------------------------------------------|
---------------------------------------------------------------------|
---------------------------------------------------------------------|
---------------------------------------------------------------------|

(Same as verses)
Ur eyes Ur mouth
Ur curly hair
U're bad no doubt
But eye must beware
You get a brother in trouble girl

Outro
“Fellas, how bad is this girl…etc”
--------------------------------------|
--------------------------------------|
--------------------------------------|
-----7----7--10---5---7---------------|
--------------------------------------|
-----5----5---8----3---5--------------|

“Lolita, how bad are you girl?...etc”
- Riff 1 and 2

Imagine me on the tip tip of your tongue…etc”
-	same as Chorus

NOTE: There is some more to this song such as some keyboard riffs here and there which I 
tab later.
Transcribed by FunknFresh
Related for Lolita tab
Advertisement will be closed in 10 seconds