Song name
# A B C D E F G H I J K L M N O P Q R S T U V W X Y Z

Prince - Guitar tab

Tabbed by:Me & Prince
Email:

Tuning: E Standard

e|----------|---------|-------|-----|----------------------------------------|
B|----12----|---10----|---8---|--8--|----------------------------------------|
G|-----9----|----9----|---9---|--9--|----------------------------------------|
D|----------|---------|-------|-----|----------------------------------------|
A|----------|---------|-------|-----|----------------------------------------|
E|----------|---------|-------|-----|----------------------------------------|
 Intro * 8 to the bar all Downstrokes how ever many times

Verses add little licks in A Scale the bends are quater tone on 5th fret.

e|-----------------------|---------------------------------------------------|
B|-----7----5-^------7---|---7---5-^------88---------------------------------|
G|-----7----5-^------7---|---7---5-^------66---------------------------------|
D|--------------7--------|------------7---77---------------------------------|
A|-----------------------|---------------------------------------------------|
E|-----------------------|---------------------------------------------------|
SOLO
^ ^ ^ these are full bends up, Q = quarter tone bend, ~~~~= Vibrato

e|---------------|-------------------|--------------------------|------------|
B|---5----5------|-------------------|--------------------------|------------|
G|---7^9----7^9--|--5----7--7--5^Q---|----2---2--4^---2---------|------------|
D|---------------|----7-----------7--|--4---4-----------4~~~~~~-|------------|
A|---------------|-------------------|--------------------------|------------|
E|---------------|-------------------|--------------------------|------------|
|
e|---------------------------------|-------------|-----10-/---12---|---------|
B|---------------------------------|-------------|-----8--/---10---|---------|
G|---------------------------------|---Whammy----|-----7--/---9----|---------|
D|--777554442-------------000h2----|-------------|-----------------|---------|
A|-------------000-----------------|-------------|-----------------|---------|
E|-------------------3^Q-----------|-------------|-----------------|---------|           
                                           *1/*7


e|-12^14--14-12-10-12-----|--------------------------|--8-9-10-8------|------|
B|--------------------13^-|---14--12------14h15--13--|-----------10-8-|------|
G|------------------------|----------14--------------|----------------|------|
D|------------------------|--------------------------|----------------|------|
A|------------------------|--------------------------|----------------|------|
E|------------------------|--------------------------|----------------|------|

e|---------------------|---------|--------------------------------------------|
B|---------8-8-----8---|---8-----|--------------------------------------------|

G|--7-8-9-------9------|---6-----|-------------------------------------------|
D|---------------------|---7-----|-------------------------------------------|
A|---------------------|---------|-------------------------------------------|
E|---------------------|---------|-------------------------------------------|           
              *8

Just play verse licks to the end .


e|---------------------------------------------------------------------------|
B|---------------------------------------------------------------------------|
G|---------------------------------------------------------------------------|
D|---------------------------------------------------------------------------|
A|---------------------------------------------------------------------------|
E|---------------------------------------------------------------------------|

e|---------------------------------------------------------------------------|
B|---------------------------------------------------------------------------|
G|---------------------------------------------------------------------------|
D|---------------------------------------------------------------------------|
A|---------------------------------------------------------------------------|
E|---------------------------------------------------------------------------|


| /  slide up
| \  slide down
| h  hammer-on
| p  pull-off
| ~  vibrato
| +  harmonic
| x  Mute note
==============================================================
Tap to rate this tab
# A B C D E F G H I J K L M N O P Q R S T U V W X Y Z