Song name
# A B C D E F G H I J K L M N O P Q R S T U V W X Y Z

Prince - Little Red Corvette tab

Ok guys and gals here it is Little Red Corvette
I've been looking everywhere for this tab and could never find one so I decided I would 
try to ear it this is the first solo I eared so it might not be 100% the only part I'm 
sketchy about is the chord that the solo starts with but it's a start

Do not use this as a direct translation, however this should be good enough for you to 
get started.

Any comments, questions, corrections or what nots send to Dr.porkchop.wurd@gmail.com


                 Prince - Little Red Corvette - 1999

                      Standard Tuning - eBGDAE

e-||-9--9--9-------------------------------|
B-||-9--9--9-------------------------------|
G-||-10-10-10-10(h)11(p)10-----------------|
D-||-11-11-11------------------------------|
A-||---------------------------------------|
E-||---------------------------------------|

e-||---------------------------------------|
B-||---------------------------------------|
G-||------------11-10----------------------|
D-||---------11-------13-11/13-11----------|
A-||-11(h)13-------------------------------|
E-||---------------------------------------|

e-||----------------------------------11-------11-------11/14-13-|
B-||-14-13-11-------11-13-14-11-13-14----13-14----13-14----------|
G-||----------13-13----------------------------------------------|
D-||-------------------------------------------------------------|
A-||-------------------------------------------------------------|
E-||-------------------------------------------------------------|

e-||-------------11-13---------------------|
B-||----11-13-14-----------11--------------|
G-||-13----------------/13----10-10/11-10--|
D-||---------------------------------------|
A-||---------------------------------------|
E-||---------------------------------------|

Pretty easy solo in my opinion

The rest of the licks in this song are really not too hard to find out yourself but if 
necessary I will post those as well :]

Have fun.
Tap to rate this tab
 
# A B C D E F G H I J K L M N O P Q R S T U V W X Y Z