Song name
# A B C D E F G H I J K L M N O P Q R S T U V W X Y Z

Prince - Slow Love chords

Highlighted       Show chord diagrams
---------------------------------------------------------------------------
		Slow Love - Prince
---------------------------------------------------------------------------
Tabbed by: maguri
Tuning: Standard

Prince
Slow Love (1987)
(Prince/Carole Davis)

From: "Sign 'O' the Times"


---------------------------------------------------------------------------
CHORDS

          e-B-G-D-A-E
Bbmaj7    1-3-2-3-1-x
Csus4     1-1-0-x-3-x
Fmaj7     0-1-2-2-x-1
Csus4/7/9 3-3-3-5-3-x

---------------------------------------------------------------------------

*LINK 
[chords]
 Edim                       Fmaj7
e|3-----0-----|------------|------------|
B|2-----2-----|2-----------(1)----------|
G|3-----3-----|3-----3-----|2-----------|
D|2-----2-----|2-----2-----|2-----------|
A|------------|------4-----|------------|
E|------------|------------|1-----------|
[second guitar/bass]
e|------------|------------|------------|
B|------------|------------|------------|
G|------------|------------|------------|
D|------------|------3~----|2~----------|
A|1-----3-----|4-----------|------------|
E|------------|------------|------------|

The chords work well enough alone, even if you don't have a second guitar
playing along.

---------------------------------------------------------------------------

F [break]      Gm7
  Young is the night
Bbmaj7        C     Csus4
  It feels so right
F [break]         Gm7
  Now that you're mine
Bbmaj7           C    Csus4
  Let's take our time


Dm                       C        C7
  The man in the moon is smiling
Dm                                *Edim
  For he knows what I'm dreaming of [*LINK]
Fmaj7                      Csus4/7/9  Bb       F        C    
  Tonight is the night for making slow love    [break]  [break]


F [break]    Gm7
  The gentle breeze
Bbmaj7          C     Csus4
  It blows with ease
F [break]       Gm7
  Let's make it slow
Bbmaj7               C     Csus4
  Just like the wind blows


Dm                      C      C7
  Let's make it last forever
      Dm                        *Edim
For a hundred times wouldn't be enough [*LINK]
Fmaj7                      Csus4/7/9  Bb       F        C    
  Tonight is the night for making slow love    [break]  [break]


F [break]   Gm7
Slow        love
Bb                      Csus4/7/9
  So much better when we take it easy
F [break]   Gm7
Slow        love
Bb                           Csus4/7/9 [break]
  It's so much better when we take our time


F [break]         Gm7
  Love's in your eyes (In your eyes)
Bbmaj7       C     Csus4
  Eyes never lie
F [break]         Gm7
  Don't rush the feelin'
Bbmaj7        C     Csus4
  You got me reelin'


Dm                              C        C7
  You can see through race car drivers
Dm                             *Edim
  Let me show you what I'm made of [*LINK]
Fmaj7                      Csus4/7/9  Bb       F        C    
  Tonight is the night for making slow love    [break]  [break]


F [break]   Gm7
Slow        love
Bb                       Csus4/7/9
  So much better when we    take it easy
F [break]   Gm7
Slow        love
Bb                            Csus4/7/9 [break]
  It's so much better when we    take our time

(repeat and fade)
Tap to rate this tab
 
# A B C D E F G H I J K L M N O P Q R S T U V W X Y Z