Song name
# A B C D E F G H I J K L M N O P Q R S T U V W X Y Z

Prince - 3 Chains O Gold tab

Guitar Intro
0:18 - 0:31

e|---------------------------------------------------------------------------------------|
B|---------------------------------------------------------------------------------------|
G|---------------------------------------------------------------------------------------|
D|---------------------------------------------------------------------------------------|
A|-----6-8--8-6------------------6-------------------------------------------------------|
E|-6-8----------1s-3s-4--6--6-8----------------------------------------------------------|

e|--------------------------------------------------------------------------------------|
B|--------------------------------------------------------------------------------------|
G|--------------------------------------------------------------------------------------|
D|--------------------------------------------------------------------------------------|
A|-----6-8--8-6-------------------------------------------------------------------------|
E|-6-8----------1s-3s-4--~6-------------------------------------------------------------|


e|---------------------------------------------------------------------------------------|
B|---------------------------------------------------------------------------------------|
G|---------------------------------------------------------------------------------------|
D|---------------------------------------------------------------------------------------|
A|-----6-8--8-6------------------6-------------------------------------------------------|
E|-6-8----------1s-3s-4--6--6-8----------------------------------------------------------|

e|------------------------------------------|
B|------------------------------------------|
G|------------------------------------------|
D|------------------------------------------|
A|-----6-8--8-6------------------~6------6--|
E|-6-8----------1s-3s-4--6--6-8-----6-8-----|
Tap to rate this tab
# A B C D E F G H I J K L M N O P Q R S T U V W X Y Z