Song name
# A B C D E F G H I J K L M N O P Q R S T U V W X Y Z

Prince - Musicology tab

Ol^ school joint 4 the tru^ funk SOULdiers!

Not a lot 2 this one, kinda minimalist which works well with the song.

E----------------------------|--------------------||
B------------------------rpt-|---------------rpt--||
G--4--4^4--2--4--2--4----x3-|--*pause*------from-||
D----------------------------|---------------start||
A-----------------------2----|-----------2--------||
E----------------------------|--------------------||

Every now and then in the song, when the riff cuts off, u can funkily 2 go 
back in2 it with:

E--------------------|
B--------------------|
G-----------2^4-----|
D-----2^4-----------|
A--2--------------2--|
E--------------------|
Tap to rate this tab
# A B C D E F G H I J K L M N O P Q R S T U V W X Y Z