Song name
# A B C D E F G H I J K L M N O P Q R S T U V W X Y Z

Prince - A Question Of You tab

Help us improve GuitareTab! Take a short survey!
      Prince -- A Question of U  (solo)  from the album "Graffiti Bridge"

     This is my 1st tab so its not an exact transcription of the man,s work but it sounds pretty close!
     ive been playing it for years so thought id write it down 4 ya,all.

     Usual Prince tone: plenty drive clean tone with good sustain.

     The first two sections are played at quite a slow tempo and then it quickens for 
remainder,again
     listen to the cd for fine tuning of tempo-slides-bends etc.


     a question of u           s-slide
     ---------------           h-hamer on
                               p-pull off
                               v-vibrato
                              bu-bend up

     |                                                 |                                               |
  E-----------------------------------------------------------------------------------------------------|
  B------2-3s7------2-3s7------2-3s5s3s53p0----2h3h2h3----2-3s7s(10)-----------2-3s5s3s53p0----2h3h2h3--|
  G-----4---------4----------4-------------3s4----------4-----------9v-9s7s0--4------------3s4----------|
  D--2s4---------4--------2s4--------------------------4---------------------4--------------------------|
  A-----------------------------------------------------------------------------------------------------|
  E-----------------------------------------------------------------------------------------------------|
     |                                                 |                                               |

     |                                                 |
  E--s(14)(12)----(12)(12)----(12)-------(12)(14)(12)----(12)(12)----(12)(14)---(12)------------------|
  B-----------(15)--------(15)---(12)(15)------------(15)--------(15)--------(15)---(15)(12)(12)------|
  G---------------------------------------------------------------------------------------------------|
  D---------------------------------------------------------------------------------------------------|
  A---------------------------------------------------------------------------------------------------|
  E---------------------------------------------------------------------------------------------------|
     |                                                 |                                               |

     |                                                 |                                               |
  E---------------------------------------------------------------------------------------------------|
  B--(15)(14)(12)---(12)(14)-(15)(14)(12)----(12)--------(10)(10)h(12)(7)h(10)-(10)(10)h(12)(7)h(10)--|
  G--------------(14)--------------------(14)---------------------------------------------------------|
  D---------------------------------------------------------------------------------------------------|
  A---------------------------------------------------------------------------------------------------|
  E---------------------------------------------------------------------------------------------------|
     |                                                 |                                               |

     |                                                 |                                               |
  E---------------------------------------------------------------------------------------------------|
  B---------------------------------------------------------------------------------------------------|
  G  (12)(11)(9)(7)(6)(4)(3)----------------------------------(7)h(9)(9)bu(9)bu(9)bu(7)---------------|
  D-------------------------(12)p(9)---------------------------------------------------(9)(7)h(9)s(0)-|
  A---------------------------------(12)p(9)(5)s(7)---------------------------------------------------|
  E------------------------------------------------(7)s(0)--------------------------------------------|
    |                                                  |                                               |


     Easy as that!  Next up 4 me "Joy in Repitition"  thanks 4 viewing my tab,  peace and be wild. yosh
Related for A Question Of You tab