Song name
# A B C D E F G H I J K L M N O P Q R S T U V W X Y Z

Prince - Most Beautiful Girl In The World tab

I don't know why ppl don't tab more prince songs.

Q=88
 4/4
  Gtr I
|---------|-9-8-----8-------|-8-9-----8-----9-|-9-8-----8--------|
|---------|-----6-7---6-7-6-|-----6-7---6-7---|-----6-7---6-7-6--|
|---------|-----------------|-----------------|------------------|
|---------|-----------------|-----------------|------------------|
|---------|-----------------|-----------------|------------------|
|---------|-----------------|-----------------|------------------|


|-8-9-----8-----9-|------------------------|-----------------|
|-----6-7---6-7---|-11-9-(9)-7-(7)---------|-----------------|
|-----------------|----------------8-(8)-6-|-(6)----(6)------|
|-----------------|------------------------|-----------------|
|-----------------|------------------------|-----------------|
|-----------------|------------------------|-----------------|


|--14-14-14--13---9--9------|---------|--14-14-14--13------9---9--9-|
|--14-14-14--14--11--9--11--|---------|--14-14-14--14--11--9--11--9-|
|-----------------------13--|---------|----------------13-----------|
|---------------------------|---------|-----------------------------|
|---------------------------|---------|-----------------------------|
|---------------------------|---------|-----------------------------|


|-(9)--------|--14-14-14--13---9--9------|-----|
|-(9)--------|--14-14-14--14--11--9--11--|-----|
|------------|-----------------------13--|-----|
|------------|---------------------------|-----|
|------------|---------------------------|-----|
|------------|---------------------------|-----|


|--14-14-14--13------9---9--9-|----------------------|------------|
|--14-14-14--14--11--9--11--9-|-11-9--7-(7)----------|------------|
|----------------13-----------|--------------8-(8)-6-|-(6)--------|
|-----------------------------|----------------------|------------|
|-----------------------------|----------------------|------------|
|-----------------------------|----------------------|------------|


|--------------|---------|--------------|-----------------|
|---2-2-(2)----|---------|---2-2-(2)----|-----------------|
|---3-1-(1)----|---------|---3-1-(1)----|-6----1-(1)-3-1--|
|---4-3-(3)----|---------|---4-3-(3)----|-4--4-3-(3)------|
|--------------|---------|--------------|-6---------------|
|--------------|---------|--------------|-----------------|


|--------------|---------|--------------|-----------------|
|---2-2-(2)----|---------|---2-2-(2)----|-----------------|
|---3-1-(1)----|---------|---3-1-(1)----|-6----1-(1)-3-1--|
|---4-3-(3)----|---------|---4-3-(3)----|-4--4-3-(3)------|
|--------------|---------|--------------|-6---------------|
|--------------|---------|--------------|-----------------|


|--------------|---------|--------------|-----------------|
|---2-2-(2)----|---------|---2-2-(2)----|-----------------|
|---3-1-(1)----|---------|---3-1-(1)----|-6----1-(1)-3-1--|
|---4-3-(3)----|---------|---4-3-(3)----|-4--4-3-(3)------|
|--------------|---------|--------------|-6---------------|
|--------------|---------|--------------|-----------------|


|-----------------|---------|--------------|-----------------------|
|------2-2-(2)----|---------|---2-2-(2)----|-11-9--7-(7)-----------|
|-(1)--3-1-(1)----|---------|---3-1-(1)----|--------------8-(8)-6--|
|------4-3-(3)----|---------|---4-3-(3)----|-----------------------|
|-----------------|---------|--------------|-----------------------|
|-----------------|---------|--------------|-----------------------|


|----------------|--14-14-14--13---9--9------|
|----------------|--14-14-14--14--11--9--11--|
|-(6)----(6)-----|-----------------------13--|
|----------------|---------------------------|
|----------------|---------------------------|
|----------------|---------------------------|


|---------|--14-14-14--13------9---9--9-|
|---------|--14-14-14--14--11--9--11--9-|
|---------|----------------13-----------|
|---------|-----------------------------|
|---------|-----------------------------|
|---------|-----------------------------|


|-(9)--------|--14-14-14--13---9--9------|-----|
|-(9)--------|--14-14-14--14--11--9--11--|-----|
|------------|-----------------------13--|-----|
|------------|---------------------------|-----|
|------------|---------------------------|-----|
|------------|---------------------------|-----|


|--14-14-14--13------9---9--9-|----------------------|------------|
|--14-14-14--14--11--9--11--9-|-11-9--7-(7)----------|------------|
|----------------13-----------|--------------8-(8)-6-|-(6)--------|
|-----------------------------|----------------------|------------|
|-----------------------------|----------------------|------------|
|-----------------------------|----------------------|------------|


|--------------|---------|------9-(9)----|
|---2-2-(2)----|---------|--6-7----------|
|---3-1-(1)----|---------|---------------|
|---4-3-(3)----|---------|---------------|
|--------------|---------|---------------|
|--------------|---------|---------------|


|-9-----------------------|----9------------|-9--------|----9-------------|
|-------------------------|---11--9--(9)----|----------|---11--9--(9)-----|
|---10-11-10-(10)--(10)---|---11-10-(10)----|----------|---11-10-(10)-----|
|-------------------------|-----------------|----------|------------------|
|-------------------------|-----------------|----------|------------------|
|-------------------------|-----------------|----------|------------------|


|---14-13----14----|--------------|-----|
|-9-------14-------|---2-2-(2)----|-----|
|------------------|---3-1-(1)----|-----|
|------------------|---4-3-(3)----|-----|
|------------------|--------------|-----|
|------------------|--------------|-----|


|---------------|-------9-(9)----|--------------|----------|
|------2-(2)----|---6-7----------|---2-2-(2)----|-2--------|
|---------------|-4--------------|---3-1-(1)----|----------|
|--3-4----------|----------------|---4-3-(3)----|----------|
|---------------|----------------|--------------|----------|
|---------------|----------------|--------------|----------|


|--------------|----------------------|-------------|
|---2-2-(2)----|-11-9--7-(7)----------|-------------|
|---3-1-(1)----|--------------8-(8)-6-|-(6)---------|
|---4-3-(3)----|----------------------|-------------|
|--------------|----------------------|-------------|
|--------------|----------------------|-------------|


|--14-14-14--13---9--9------|---------|--14-14-14--13------9---9--9-|
|--14-14-14--14--11--9--11--|---------|--14-14-14--14--11--9--11--9-|
|-----------------------13--|---------|----------------13-----------|
|---------------------------|---------|-----------------------------|
|---------------------------|---------|-----------------------------|
|---------------------------|---------|-----------------------------|


|-(9)--------|--14-14-14--13---9--9------|-----|
|-(9)--------|--14-14-14--14--11--9--11--|-----|
|------------|-----------------------13--|-----|
|------------|---------------------------|-----|
|------------|---------------------------|-----|
|------------|---------------------------|-----|


|--14-14-14--13------9---9--9-|----------------------|------------|
|--14-14-14--14--11--9--11--9-|-11-9--7-(7)----------|------------|
|----------------13-----------|--------------8-(8)-6-|-(6)--------|
|-----------------------------|----------------------|------------|
|-----------------------------|----------------------|------------|
|-----------------------------|----------------------|------------|


|-9-8-----8-------|-8-9-----8-----9-|-9-8-----8-------|-8-9-----8-----9-|
|-----6-7---6-7-6-|-----6-7---6-7---|-----6-7---6-7-6-|-----6-7---6-7---|
|-----------------|-----------------|-----------------|-----------------|
|-----------------|-----------------|-----------------|-----------------|
|-----------------|-----------------|-----------------|-----------------|
|-----------------|-----------------|-----------------|-----------------|


|-9-8-----8-------|-8-9-----8-----9-|
|-----6-7---6-7-6-|-----6-7---6-7---|
|-----------------|-----------------|
|-----------------|-----------------|
|-----------------|-----------------|
|-----------------|-----------------|


|------------------------|----------------|
|-11-9-(9)-7-(7)---------|----------------|
|----------------8-(8)-6-|-(6)----(6)-----|
|------------------------|----------------|
|------------------------|----------------|
|------------------------|----------------|


|--14-14-14--13---9--9------|---------|-----|
|--14-14-14--14--11--9--11--|---------|-----|
|-----------------------13--|---------|-----|
|---------------------------|---------|-----|
|---------------------------|---------|-----|
|---------------------------|---------|-----|


|---------|--14-14-14--13---9--9------|-----|
|---------|--14-14-14--14--11--9--11--|-----|
|---------|-----------------------13--|-----|
|---------|---------------------------|-----|
|---------|---------------------------|-----|
|---------|---------------------------|-----|


|----------------------|------------|
|-11-9--7-(7)----------|------------|
|--------------8-(8)-6-|-(6)--------|
|----------------------|------------|
|----------------------|------------|
|----------------------|------------|


||---14-14-14--13---9--9------|---------|--14-14-14--13------9---9--9--|
||o--14-14-14--14--11--9--11--|---------|--14-14-14--14--11--9--11--9--|
||------------------------13--|---------|----------------13------------|
||----------------------------|---------|------------------------------|
||o---------------------------|---------|------------------------------|
||----------------------------|---------|------------------------------|


|-(9)--------|--14-14-14--13---9--9------|-----|
|-(9)--------|--14-14-14--14--11--9--11--|-----|
|------------|-----------------------13--|-----|
|------------|---------------------------|-----|
|------------|---------------------------|-----|
|------------|---------------------------|-----|


|--14-14-14--13------9---9--9-|-(9)---------||
|--14-14-14--14--11--9--11--9-|-(9)--------o||
|----------------13-----------|-------------||
|-----------------------------|-------------||
|-----------------------------|------------o||
|-----------------------------|-------------||



Tablature Legend
----------------
 h   - hammer-on
 p   - pull-off
 b   - bend
 pb  - pre-bend
 r   - bend release (if no number after the r, then release immediately)
 /\  - slide into or out of (from/to "nowhere")
 s   - legato slide
 S   - shift slide
 - natural harmonic
[n]  - artificial harmonic
n(n) - tapped harmonic
 ~   - vibrato
 tr  - trill
 T   - tap
 TP  - trem. picking
 PM  - palm muting
\n/  - tremolo bar dip; n = amount to dip
 \n  - tremolo bar down
 n/  - tremolo bar up
/n\  - tremolo bar inverted dip
 =   - hold bend; also acts as connecting device for hammers/pulls
 <> - volume swell (louder/softer)
 x   - on rhythm slash represents muted slash
 o   - on rhythm slash represents single note slash

Misc Legend
-----------
 |  - bar
||  - double bar
||o - repeat start
o|| - repeat end
*|  - double bar (ending)
 :  - bar (freetime)
 $  - Segno
 &  - Coda
Tempo markers -  = BPM(8/16=s8/s16), where s8 = swing 8ths, s16 = swing 16ths
Tap to rate this tab
# A B C D E F G H I J K L M N O P Q R S T U V W X Y Z