Song name
# A B C D E F G H I J K L M N O P Q R S T U V W X Y Z

Prince - One U Wanna C tab

Help us improve GuitareTab! Take a short survey!
One U Wanna C
Prince
Planet Earth 2007
Greg Harper  gregharper2007@hotmail.co.uk


Song opens with an E chord
w/chorus & wah
   
E|------------------------------------------------------|
B|-------------------------------8---------------8------|
G|-------------------9------9-11---11-9-----9-11---11-9-|
D|-------------------9------------------9---------------|
A|----------11-10h11------------------------------------|
E|------------------------------------------------------|


E|-------------------------|
B|------8------------------|
G|-9-11---11-9-------------|
D|-------------9--7-7/11-9-|
A|-------------------------|
E|-------------------------|


Bass run:

G|---9---7---6---4---2-|
D|---------------------|
A|-7---5---4---2---0---|
E|---------------------|
   S P S P S P S P S P

Chords sound like A E D and a few 7ths and minors in there too.
I'll work those out when I get the chance.
Related for One U Wanna C tab