Song name
# A B C D E F G H I J K L M N O P Q R S T U V W X Y Z

Princess Chelsea - Frack tab

This is the xylophone part, she plays at the very beginning and several times throughout 
the song. The bassnotes first come in at the middle of the song and are played by a 
different instrument (hmm...probably a bass?).

-0--0--0---------0--0--0---------0--0--0--------40--0--0-----------|
---------4--4------------4--4------------4--4--4---------4--4------|
--1---1-----------1---1-----------1---1-------4---1---1------------|
----------6---------------6---------------6---------------6--------|
-------------------------------------------------------------------|
-0-0-0-0-4-4-4-4-0-0-0-0-4-4-4-4-0-0-0-0-4-4-4-4-0-0-0-0-4-4-4-4---|

The next part is the melody of the synthies that come in at 3:32:

------0-------------------------------0----------------------------|
-0-0-0---4-------0---------------0-0-0---4-------0-----------------|
--1-1-------------1-1-1-----------1-1-------------1-1-1------------|
-------------------2-2---6-------------------------2-2---6---------|
-------------------------------------------------------------------|
-------------------------------------------------------------------|

Happy playing :)
Tap to rate this tab
# A B C D E F G H I J K L M N O P Q R S T U V W X Y Z